Oops, an error
Loading. Please wait.

Deeper I Fall Tab

264 views 1 this week
no commentswrite comment
1 2 3 4 5
1 last vote to show rating
add to favorites
launch autoscroll
font size
0
reset
how to read this tab
guitar tuner
Autoscroll
slow
fast
+/-
esc
set tempo
stop
Help us to improve Ultimate-Guitar.com Take our survey!
×
to all typecast fans sana po
magustuhan nyo

DEPPER I FALL

intro: 8x

lead guitar(ulitin nyo lang yong ung lead na intro tapos ng 8x na ulit eh ulit lang nyo
ung nasa huli just to be sure sa timing mga tol..... seprahin nyo rin pero tama ang mga
tabs na yan......... TRY nyo...)
E----------------------------------------    ---------------|
B--10-10-10-9-9-9-12-12-12-9-9-9-10-10-9- 8x -10-10-10-99---|
G----------------------------------------    ---------------|
D----------------------------------------    ---------------|
A----------------------------------------    ---------------|
E----------------------------------------    ---------------|

rythm guitar (mga tol ganto kasi ung pakinig ko sa gitara)
             (tingin ko kasi paulit ulit lang to)
             (ok talaga typecast malupit >>>>>)
E-----------|
B-----------|
G--9--------| kasabay ng lead maliban sa pasok ng rythm sa next
D-----------| tab
A-----------|
E-----------|

verse: 4x
E-----------------------------------------------------------|
B-----------------------------------------------------------|
G--9--------7-------------------7----------9--11-13--11--9--|
D-----------------------------------------------------------|
A--7--------5-------------------4---------------------------|
E------------------------------------------7--9--11--9---7--|
  tomorrow i'll wait for the setting sun
  like the day i waited for you to come
  i even think ill be gone
  tomorrow i'll wait for the setting sun

tapos ng apat na verse eh papasok na ang intro
so ulit nyo lang ung intro tapos
(here comes the best part of being steve badiola)
kakanta na vocalist
note: ang lupit ng timing ni steve sa kanta na to

chorus: 2x
E-------------------------------------------------------|
B-------------------------------------------------------|
G--5---4---13--12--7--7---------------------------------|
D-------------------------------------------------------|
A--3---2---11--10--5--4---------------------------------|
E-------------------------------------------------------|
   c   b   g#  g   d  d/c
  ito ung chorus ung sa g# g try nyo kung mataas o mababa ng isang fret kasi wala akong 
na gitara nung ginagawa ko tong tab..... pero sure ako 100% tama to.....
  by the way 2x lang tong choeus na to.....
  kasi bigla tyong break sa verse "kasunod agad nito ay verse"

verse: 2x
E-----------------------------------------------------------|
B-----------------------------------------------------------|
G--9--------7-------------------7----------9--11-13--11--9--|
D-----------------------------------------------------------|
A--7--------5-------------------4---------------------------|
E------------------------------------------7--9--11--9---7--|
  tomorrow i'll wait for the setting sun
  like the day i waited for you to come
  note: ngayon eto ung twist 2 beses na lang ung verse
        tapos nito ay chorus na ang kasunod nito

chorus: 4x
E-------------------------------------------------------|
B-------------------------------------------------------|
G--5---4---13--12--7--7---------------------------------|
D-------------------------------------------------------|
A--3---2---11--10--5--4---------------------------------|
E-------------------------------------------------------|
   c   b   g#  g   d  d/c


- tomorrow i'll wait for the setting sun like the day i waited for you to come i even 
ill be gone tomorrow i'll wait for the setting sun what i want you to have are my memories 
you we both know we can't be in the same place in the same room all i do is wait for you
and wait once more than more you ignore me the deeper i fall.

ung lyrics sa chorus ay iba...

dennis

zinectics@yahoo.com
Suggest correction
Give kudos to tab author, rate the tab!
1 2 3 4 5
comments
print report bad tab
guest
You may want to rate the tab now too:
select rating
Wanna post a correction for this tab? Suggest correction