Oops, an error
Loading. Please wait.

Distance Between Us Tab

880 views 1 this week
no commentswrite comment
1 2 3 4 5
please rate
add to favorites
launch autoscroll
font size
0
reset
how to read this tab
guitar tuner
Tab Pro tools
  • play this tab
  • loop segment
  • change instrument
  • show fretboard
  • metronome
Autoscroll
slow
fast
+/-
esc
set tempo
stop
Contributor
distance between us - typecast


intro:


E|--------------------------------|
B|--77-7------77/88---------------|
G|--xx-x--44--xx/xx--77-7777\5\4--|
D|--44-4--xx--44/55--xx-xxxx\x\x--|
A|--------22---------55-5555\3\2--|
D|--------------------------------|


E|---------------------------|
B|--77-7777/88---------------|
G|--xx-xxxx/xx--77-7777\5\4--|  2x
D|--44-4444/55--xx-xxxx\x\x--|
A|--------------55-5555\3\2--|
D|---------------------------|


E|-------------------------|
B|--77-7777/10-10----------|
G|--xx-xxxx/x--x--77-7777--|
D|--44-4444/7--7--xx-xxxx--|
A|----------------55-5555--|
D|-------------------------|

verse 1:


E|------------------------------------------------------|
B|------------------------------------------------------|
G|------------------------------------5555555555555555--|
D|--555555555555555--444444444444444--5555555555555555--|
A|--555555555555555--444444444444444--3333333333333333--|
D|--555555555555555--444444444444444--------------------|

     ..............  ...............   ...............


E|------------------|
B|------------------|
G|--55-555--77-777--|
D|--55-555--77-777--|
A|--33-333--55-555--|
D|------------------|

     .       .

chorus:


E|--------------------------------|
B|--------------------------------|
G|--------5-5-5--------5-5-5------|
D|--2--5--5-4-5--2--5--5-4-5-5/7--|
A|--2--5--3-3-3--2--5--3-3-3------|
D|--2--5---------2--5-------------|

riff 1:


E|---------------------------|
B|--77-7777/88---------------|
G|--xx-xxxx/xx--77-7777\5\4--|
D|--44-4444/55--xx-xxxx\x\x--|
A|--------------55-5555\3\2--|
D|---------------------------|


E|------------------------|
B|--77-7777/1010----------|
G|--xx-xxxx/x-x--77-7777--|
D|--44-4444/7-7--xx-xxxx--|
A|---------------55-5555--|
D|------------------------|


verse 2:


E|------------------------------------------------------|
B|------------------------------------------------------|
G|------------------------------------5555555555555555--|
D|--555555555555555--444444444444444--5555555555555555--|
A|--555555555555555--444444444444444--3333333333333333--|
D|--555555555555555--444444444444444--------------------|

     ..............  ...............   ...............


E|------------------|
B|------------------|
G|--55-555--77-777--|
D|--55-555--77-777--|
A|--33-333--55-555--|
D|------------------|

     .       .

chorus:


E|--------------------------------|
B|--------------------------------|
G|--------5-5-5--------5-5-5------|
D|--2--5--5-4-5--2--5--5-4-5-5/7--|
A|--2--5--3-3-3--2--5--3-3-3------|
D|--2--5---------2--5-------------|


outro:


E|---------------------------|
B|--77-7777/88---------------|
G|--xx-xxxx/xx--77-7777\5\4--|  2x
D|--44-4444/55--xx-xxxx\x\x--|
A|--------------55-5555\3\2--|
D|---------------------------|


E|-------------------------------------|
B|-------------------------------------|
G|--99-999/11-11-11/12-12--99-999\7\5--|
D|--xx-xxx/x--x--x-/x--x---xx-xxx\x\x--|
A|--77-777/9--9--9-/10-10--77-777\5\3--|
D|-------------------------------------|


E|-----------------------------------------|
B|-----------------------------------------|
G|--99/11-11/12-12/14-14\12-12\11-11\99\5--|
D|--xx/x--x-/x--x-/x--x-\x--x-\x--x-\xx\x--|
A|--77/9--9-/10-10/12-12\10-10\9--9-\77\3--|
D|-----------------------------------------|

intindihin nyo nalang ung tab & timing ung kelangan.. eto nga pala ung email add ko 
thanks! ^_^
comments
We did not receive enough feedback on this tab! Please rate:
print report bad tab
1 2 3 4 5
I want to post or [tab]
guest
You may want to rate the tab now too:
select rating
Please do not post tabs as comments. Select "correction" instead!