Oops, an error
Loading. Please wait.

Dorothy Tab

version 2
version 2

Whole song

267 views 1 this week
1 commentread comment
1 2 3 4 5
please rate
add to favorites
launch autoscroll
font size
0
reset
how to read this tab
guitar tuner
Tab Pro tools
  • play this tab
  • loop segment
  • change instrument
  • show fretboard
  • metronome
×
Best way to learn
"Dorothy"
Autoscroll
slow
fast
+/-
esc
set tempo
stop
Contributor
dorothy - typecast


intro:

E|------------------|
B|------------------|
G|------------------|
D|--77777777777777--|
A|--55555555555555--|
D|------------------|

     .............


verse:

it was saturday and i'm waiting for my friends 
and then you came and you dazzled me 
with the way you walk near me

E|---------------------------------------------------5~--|
B|---------------------------------------------------7~--|
G|---------------------------------------------------7~--|
D|--77777777777777--44444444444444--555555555555555--7~--|
A|--55555555555555--44444444444444--555555555555555--5~--|
D|------------------44444444444444--555555555555555--5~--|

     .............   .............   ..............


then i thought i would approach you but it makes no sense 
because you're with your boyfriend


E|-----------5~--|
B|-----------7~--|
G|-----------7~--|
D|--7--4--5--7~--|
A|--5--4--5--5~--|
D|-----4--5--5~--|


and i know i can never skate the way he does growls 
the way he growls the way he dress so cool 
and i know i can never be the same like him 
cool like him but that's just me


E|--------------|
B|--------------|
G|--------------|  
D|--4--5--7--7--|
A|--2--5--5--7--|
D|-----5-----7--|


i was playing my guitar when you passed by 
my body got so heavy, i cant move my fingers

(bass line)


and then you sat in front of me 
i see you're staring at me 
you could see me shiver 



E|-----------5~--|
B|-----------7~--|
G|-----------7~--|
D|--7--4--5--7~--|
A|--5--4--5--5~--|
D|-----4--5--5~--|



and i know i can never skate the way he does 
growls the way he growls the way he dress so cool 
and i know i can never be the same like him 
cool like him but that's just me


E|--------------|
B|--------------|
G|--------------|  
D|--4--5--7--7--|
A|--2--5--5--7--|
D|-----5-----7--|


i'm a little older, but then i feel so young 
and even if your boyfriend kicks my ass 
its alright i see you


E|--------------|
B|--------------|
G|--------------|
D|--7--5--9--7--|
A|--5--5--9--7--|
D|-----5--9--7--|



outro:


E|-------|
B|-------|
G|-------|
D|--7-7--|
A|--5-5--|
D|-------|


eto nga pala email add ko what_is_a@yahoo.com.. thanks! ^_^
comments
We did not receive enough feedback on this tab! Please rate:
print report bad tab
1 2 3 4 5
1 comment total.
0 reply
doonot wrote on January 9 2007, 11:58 am

version 1 is much better...

I want to post or [tab]
guest
You may want to rate the tab now too:
select rating
Please do not post tabs as comments. Select "correction" instead!