Oops, an error
Loading. Please wait.

Dorothy Tab

version 3
version 3

Whole song

1,527 views 1 this week
5 commentsread comments
1 2 3 4 5
excellent!
x 7
add to favorites
launch autoscroll
font size
0
reset
how to read this tab
guitar tuner
Autoscroll
slow
fast
+/-
esc
set tempo
stop
Help us to improve Ultimate-Guitar.com Take our survey!
×
Author
Artist:Typecast
Album:Last Time
Song:Dorothy
Email:alexisonfire066@yahoo.com

. - palm mute
/ - slide
x - dead string
~ - let it ring
// - pick slide

Standard Tuning Eadgbe

INTRO
it was saturday...and i im waiting for my friends....
E|----------------------------------------------------------|
B|----------------------------------------------------------|
G|--7~-77777-7~-7777777----------------------------------5~-|
D|--7~-77777-7~-7777777--4~-44444444444-5~-5555555555555-5~-| THEN PICKSLIDE
A|--5~-55555-5~-5555555--4~-44444444444-5~-5555555555555-3~-|
E|-----------------------2~-22222222222-3~-3333333333333----|

      ......    .......     ...........    .............

VERSE 
  AND I THOUGHT I WOULD APPROACH YOU...
E|------------------------------------------------|
B|------------------------------------------------|
G|--77777777777777--------------------------------|
D|--77777777777777-444444444444-55555555555555-5~-|
A|--55555555555555-444444444444-55555555555555-5~-| 
E|-----------------222222222222-33333333333333-3~-|

PRECHORUS
  AND I KNOW I CAN NEVER BE THE SAME LIKE HIM...
E|-------------------------------------------------------------------|
B|-------------------------------------------------------------------|
G|--44444444444444--------------77777777777777-----------------------|
D|--44444444444444-555555555555-77777777777777-7777777777X7X7X7X7----| 
A|--22222222222222-555555555555-55555555555555-7777777777X7X7X7X7----|
E|-----------------333333333333----------------5555555555X5X5X5X5----|

VERSE 2 BASS LINE 
THEN DO A PICKSLIDE
NEXT

E|-------------------------------------------------|
B|-------------------------------------------------|
G|---77777777777777--------------------------------|
D|---77777777777777-444444444444-55555555555555-5~-| 
A|//-55555555555555-444444444444-55555555555555-5~-| 
E|------------------222222222222-33333333333333-3~-|

REPEAT PRECHORUS

E|-------------------------------------------------------------------|
B|-------------------------------------------------------------------|
G|--44444444444444--------------77777777777777-----------------------|
D|--44444444444444-555555555555-77777777777777-7777777777X7X7X7X7----| 
A|--22222222222222-555555555555-55555555555555-7777777777X7X7X7X7----| 2X
E|-----------------333333333333----------------5555555555X5X5X5X5----|

BRIDGE
 
E|---------------------------------------------------    --------|
B|---------------------------------------------------    --------|
G|--7777777777---------------------------------------    -7-7----|
D|--7777777777-5555555555-99999999999--77777777------ 2x -7-7----|
A|--5555555555-5555555555-99999999999--77777777------    -5-5----|
E|-------------3333333333-77777777777--55555555------    --------|

END





    
Suggest correction
comments
print report bad tab
5 comments total. Showing first comments.
0 reply
Wounded_Heart 10 wrote on October 5 2006, 07:45 pm

tama naman ah may ilang part lng di mlaliwanag ung sequence

0 reply
guiltkill 558 wrote on October 7 2006, 09:01 am

slamat dudes

0 reply
doonot 10 wrote on January 9 2007, 11:57 am

great job dude

guest
You may want to rate the tab now too:
select rating
Please do not post tabs as comments. Select "correction" instead!