Oops, an error
Loading. Please wait.

Emmanuel Tab

version 1
version 1

Whole song

1,691 views 1 this week
1 commentread comment
1 2 3 4 5
please rate
add to favorites
launch autoscroll
font size
0
reset
how to read this tab
guitar tuner
Tab Pro tools
  • play this tab
  • loop segment
  • change instrument
  • show fretboard
  • metronome
×
Best way to learn
"Emmanuel"
Autoscroll
slow
fast
+/-
esc
set tempo
stop
Contributor
Emmanuel

Typecast

In Every Moss and Cobwebs

tabbed by: Aaron Joshua G. Abelardo

-i2 lng po ngawa ko, ka2nog naman ata...hehe, sana po ma-gets nyo-


Part 1

Guitar 1
e|-----------------------------------|   |----------------------7-----7-|
B|-----------------------------------|   |----------------------7-----7-|
G|--7-7-----6-6----------------------|x8 |--7-7-----6-6---------7-----7-|x4
D|------4-4-----7-7-4-4-7-7-4-4-7-7--|   |------4-4-----7-7-4-4---4-4---|
A|-----------------------------------|   |------------------------------|
D|-----------------------------------|   |------------------------------|
                                      
                                        Guitar 2
                                        |----------------------7-----7-|
                                        |----------------------7-----7-|
                                        |----------------------7-----7-|x4
                                        |-----444444444----4-4---4-4---|
                                        |-----444444444----4-4---4-4---|
                                        |-----444444444----4-4---4-4---|


Part 2

e|----------------------------------------------------|
B|----------------------------------------------------|
G|---------------------------------11111111-14141414--|
D|---44444444--77777777--99999999--x-x-x-x--x-x-x-x---|x2
A|---44444444--77777777--99999999--9-9-9-9--12121212--|
D|---44444444--77777777--99999999---------------------|

Part 3

e|-------------------------------------------------------------|
B|-------------------------------------------------------------|
G|--4444h6-4444h6-7777h9-7777h9-9999h11-9999h11-4444h6-4444h6--|
D|-------------------------------------------------------------|
A|-------------------------------------------------------------|
D|-------------------------------------------------------------|

e|-------------------------------------------------------------------|
B|-------------------------------------------------------------------|
G|--4444h6-4444h6-7777h9-7777h9-9999h11-9999h11---11111111-14141414--|
D|------------------------------------------------x-x-x-x--x-x-x-x---|
A|------------------------------------------------9-9-9-9--12121212--|
D|-------------------------------------------------------------------|

Part 4

e|------------------------------------|
B|------------------------------------|
G|------------------------------------|
D|--555-555-555-555--999-999-999-999--|x2
A|--555-555-555-555--999-999-999-999--|
D|--555-555-555-555--999-999-999-999--|

Part 5

e|---------------------------------------------|
B|---------------------------------------------|
G|------------------------------------7-7-7-7--|
D|--77777-99999-55555555--77777-99999-X-X-X-X--|X2
A|--77777-99999-55555555--77777-99999-5-5-5-5--|
D|--77777-99999-55555555--77777-99999----------|

*Repeat Part 2

Part 6
e|------------------------------------|
B|------------------------------------|
G|------------------------------------|
D|---4~~~~~--7~~~~~--9~~~~~~----------|
A|---4~~~~~--7~~~~~--9~~~~~~----------|
D|---4~~~~~--7~~~~~--9~~~~~~----------|

e|----------------------------------------------|
B|----------------------------------------------|
G|---------------------------11111111-14141414--|
D|---444444--777777--999999--x-x-x-x--x-x-x-x---|
A|---444444--777777--999999--9-9-9-9--12121212--|
D|---444444--777777--999999---------------------|

*Repeat Part 3,4,5

Part 7

Guitar 1
e|---------------------------------|
B|---------------------------------|
G|--7--------------------------7---|(repeat several times...)
D|---4-6-7--------4-6-7------------|
A|---------6-7-9--------6-7-9------|
D|---------------------------------|

Guitar 2

e|--------------------------------|
B|--------------------------------|
G|--------------------------------|
D|--44444--00000--77777-----------|
A|--44444--00000--77777-----------|
D|--44444--00000--77777-----------|

Ending

Guitar 1
e|---------------------------------|
B|---------------------------------|
G|--7--------------------------7---|
D|---4-6-7--------4-6-7------------|
A|---------6-7-9--------6-7-9------|
D|---------------------------------|

Guitar 2
e|--------------------------------|
B|--------------------------------|
G|--------------------------------|
D|--4-----0-----7-----4-----------|
A|--4-----0-----7-----4-----------|
D|--4-----0-----7-----4-----------|



-end-

galing ng typecast!
comments
We did not receive enough feedback on this tab! Please rate:
print report bad tab
1 2 3 4 5
1 comment total.
0 reply
paul21 wrote on June 9 2007, 10:40 pm

Its off!!! 3stars

I want to post or [tab]
guest
You may want to rate the tab now too:
select rating
Please do not post tabs as comments. Select "correction" instead!