Oops, an error
Loading. Please wait.

Escape The Hurt Tab

1,914 views 1 this week
no commentswrite comment
1 2 3 4 5
please rate
add to favorites
launch autoscroll
font size
0
reset
how to read this tab
guitar tuner
Autoscroll
slow
fast
+/-
esc
set tempo
stop
Help us to improve Ultimate-Guitar.com Take our survey!
×
Author
Difficulty
enzo12 29
intermediate
Escape The Hurt
Typecast
Tabbed by : Enzo Vallejo Flores

3rd tab ko na 2. Tingnan nyo na lng ung gnawa ko na "The Infatuation Is Always There" 
"Clutching". bsta i2 na ung tab.. comments/suggestions.. twelveblackmangoes_e@yahoo.com

>>> Drop D Tuning ( D A D G B e)

Intr0:
e----------------|
B----------------|
G---------4--2---|
D---5--4--4--2---|
A---3--2--2--0---|
D---5--4---------|


e---------------------------------------------------------------------------|
B-------------------------3-3-0-0-----0-----------0--------0-------3------0-|
G------0--------0---------------------0-----------0--------0---------4----0-|
D----2---2----2---2-----------------4h5--------4--4-----4--4------------4h5-|
A--3--------2----------0------------------5-3--------2----------------------|
D-------------------------------------------------------------2-2-----------|


e---------------------------------------------------|
B---------------------------------------------------|
G---------------------------------------------------|
D--9-9--9-9----7-7---7-7----5---5-5-5-5---4-4--4-4--|
A--7-7--7-7----5-5---5-5----3---3-3-3-3---2-2--2-2--|
D--9-9--9-9----7-7---7-7----5---5-5-5-5---4-4--4-4--|

e---------------------------------------------------|
B---------------------------------------------------|
G---------------------------------------------------|
D--9-9--9-9----7-7---7-7----5---5-5-5-5---4-4--4-4--|
A--7-7--7-7----5-5---5-5----3---3-3-3-3---2-2--2-2--|
D--9-9--9-9----7-7---7-7----5---5-5-5-5---4-4--4-4--|

e----------------------------------------|
B----------------------------------------|
G----------------------------------------|
D---10--10--10--10---9--9--9--9----------|
A---10--10--10--10---9--9--9--9------7---|
D---10--10--10--10---9--9--9--9----------|

e---------------------------------------------------|
B---------------------------------------------------|
G---------------------------------------------------|
D------------7--9--7--------------4--5--7--5--4-----|
A---7---10------------10--9----5-----------------5--|
D---------------------------------------------------|

e---------------------------------------------------------------------------|
B---------------------------------------------------------------------------|
G---------------------------------------------------------------------------|
D---10--10--9--10--9--------10--12-10-9-10-9-9------12-10-9-10-9------------|
A---10--10-----------10--9--10-----------------10-9--------------10-9-------|
D---10--10------------------10----------------------------------------12-10-|


e---------------------------------------------------------------------------|
B------------------------------------------------------------3----3---3---3-|
G------------------------------------------------4--8------0----0---0---0---|
D--10-10-10-10-10-10-10-10-10-10-10-10-----1--4--4--8-2---------------------|
A--10-10-10-10-10-10-10-10-10-10-10-10-----1--4--2--6-2---------------------|
D--10-10-10-10-10-10-10-10-10-10-10-10-----1--4-------2---------------------|


Verse:
>> Strum nyo lang yan. Listening to the song would help.
4 times yan pag sa verse.

e---0---0---0--0----|
B---0---0---0--0----|
G---4---7---0--0----|
D---5---7---5--5\4--|
A-------------------|
D-------------------|

-->i2 ulit.
e---------------------------------------------------|
B---------------------------------------------------|
G---------------------------------------------------|
D--9-9--9-9----7-7---7-7----5---5-5-5-5---4-4--4-4--|
A--7-7--7-7----5-5---5-5----3---3-3-3-3---2-2--2-2--|
D--9-9--9-9----7-7---7-7----5---5-5-5-5---4-4--4-4--|

e---------------------------------------------------|
B---------------------------------------------------|
G---------------------------------------------------|
D--9-9--9-9----7-7---7-7----5---5-5-5-5---4-4--4-4--|
A--7-7--7-7----5-5---5-5----3---3-3-3-3---2-2--2-2--|
D--9-9--9-9----7-7---7-7----5---5-5-5-5---4-4--4-4--|

e---0----|
B---5----|
G---0----|
D---2----|
A--------|
D--------|

Verse: 4 times ulit 2 ah.
e---0---0---0--0----|
B---0---0---0--0----|
G---4---7---0--0----|
D---5---7---5--5\4--|
A-------------------|
D-------------------|


>>> tp0s nun i2 naman...

e------0--0-0--------------------0---|
B------0--0-0--------------------0---|
G---4--4--4-4---------4--8-------7---|
D------5--5-5---1--4--4--8-------7---|
A---------------1--4--2--6-----------|
D---------------1--4-----------------|

>> "Tell me where it hurts..."
Strum nyo 2 ah!! kay0 na bhala kng pano ung strumming bsta pakinggan
nyo na lng..

e-----------------------------------------------------------------|
B-----------------------------------------------------------------|
G------------5----------------5---------------5-------------------|
D---2--------5--(6x)--2-------5-(6x)--2-------5--(6x)--2----------|
A---2--(6x)--3--------2-(6x)--3-------2-(6x)--3--------2--(6x)----|
D---2-----------------2---------------2----------------2----------|

>>> Balik d2... (mej0 iba na 2... per0 onti lng pnagkaiba..)

e----------------|
B----------------|
G---------4--2---|
D---5--4--4--2---|
A---3--2--2--0---|
D---5--4---------|

e----------------------------------------------|
B----------------------------------------------|
G----------------------------------------------|
D---10--10--10--10---12--12--12--12------------|
A---10--10--10--10---12--12--12--12------7-----|
D---10--10--10--10---12--12--12--12------------|

e---------------------------------------------------|
B---------------------------------------------------|
G---------------------------------------------------|
D------------7--9--7--------------4--5--7--5--4-----|
A---7---10------------10--9----5-----------------5--|
D---------------------------------------------------|

e---------------------------------------------------------------------------|
B---------------------------------------------------------------------------|
G---------------------------------------------------------------------------|
D--10-10-10-10--12-12-12-12-----12-10-9-10-9-9------12-10-9-10-9------------|
A--10-10-10-10--12-12-12-12--------------------10-9--------------10-9-------|
D--10-10-10-10--12-12-12-12-------------------------------------------12-10-|


e----------------------------------------------|
B----------------------------------------------|
G----------------------------------------------|
D---10--10--10--10---12--12--12--12------------|
A---10--10--10--10---12--12--12--12---9--8--7--|
D---10--10--10--10---12--12--12--12------------|

e---------------------------------------------------|
B---------------------------------------------------|
G---------------------------------------------------|
D------------7--9--7--------------4--5--7--5--4-----|
A---7---10------------10--9----5-----------------5--|
D---------------------------------------------------|


e---------------------------------------------------------------------------|
B---------------------------------------------------------------------------|
G---------------------------------------------------------------------------|
D-10-10-10-10--12-12-12-12------12-10-9-10-9-9------12-10-9-10-9------------|
A-10-10-10-10--12-12-12-12-10-9----------------10-9--------------10-9-------|
D-10-10-10-10--12-12-12-12--------------------------------------------12-10-|


e---------------------------------------------------------------------------|
B------------------------------------------------------------3----3---3---3-|
G------------------------------------------------4--8------0----0---0---0---|
D--10-10-10-10-10-10-10-10-10-10-10-10-----1--4--4--8-2---------------------|
A--10-10-10-10-10-10-10-10-10-10-10-10-----1--4--2--6-2---------------------|
D--10-10-10-10-10-10-10-10-10-10-10-10-----1--4-------2---------------------|


>>> Verse Ulit. 4 times pa rin 2 isstrum.

e---0---0---0--0----|
B---0---0---0--0----|
G---4---7---0--0----|
D---5---7---5--5\4--|
A-------------------|
D-------------------|

>> "Tell me where it hurts..."

e------------------------------------------------------------------------|
B------------------------------------------------------------------------|
G------------5----------------5---------------5-----------------5--------|
D---2--------5--(6x)--2-------5-(6x)--2-------5--(6x)--2--------5--(6x)--|
A---2--(6x)--3--------2-(6x)--3-------2-(6x)--3--------2--(6x)--3--------|
D---2-----------------2---------------2----------------2-----------------|


e-----------------------------------------------------------------|
B-----------------------------------------------------------------|
G------------5----------------5---------------5-------------------|
D---2--------5--(6x)--2-------5-(6x)--2-------5--(6x)--2----------|
A---2--(6x)--3--------2-(6x)--3-------2-(6x)--3--------2--(6x)----|
D---2-----------------2---------------2----------------2----------|


e----------------|
B----------------|
G---------4--2---|
D---5--4--4--2---|
A---3--2--2--0---|
D---5--4---------|


End on:
e-------|
B-------|
G-------|
D---2---|
A---2---|
D---2---|

Un lng. Galing ng typecast.
Suggest correction new What's this?
You can suggest a correction to this tab. Community and Mods will review your correction and vote to approve or reject it.
comments
We did not receive enough feedback on this tab! Please rate:
print report bad tab
1 2 3 4 5
guest
You may want to rate the tab now too:
select rating
Please do not post tabs as comments. Select "correction" instead!