Oops, an error
Loading. Please wait.

Forget Tab

version 2
version 2

Whole song

1,506 views 3 this week
2 commentsread comments
1 2 3 4 5
excellent!
x 4
add to favorites
launch autoscroll
font size
0
reset
how to read this tab
guitar tuner
Tab Pro tools
  • play this tab
  • loop segment
  • change instrument
  • show fretboard
  • metronome
×
Best way to learn
"Forget"
Autoscroll
slow
fast
+/-
esc
set tempo
stop
Contributor
Artist:Typecast
Album:Last Time
Song:Forget
Tabbed by: Ram Red (09196228339)
           School:NSDAPS
           Email:alexisonfire066@yahoo.com

. - palm mute
/ - slide
x - dead string
~ - let it ring
// - pick slide

Standard Tuning Eadgbe
Use guitar with High-end distortion

INTRO/VERSE/CHORUS
I remember how could i forget unpredictable but no regrets
Im drowning in endless waters but your hand is out there somewhere
E|----------------------------------------|
B|----------------------------------------|
G|--55555555------------------------------|
D|--55555555-77777777-33333333-5x5x5x5----|
A|--33333333-77777777-33333333-5x5x5x5----|
E|-----------55555555-11111111-3x3x3x3----|

PRECHORUS
I guess its time to say goodbye..pls no more lies
E|----------------------------------------------------|
B|----------------------------------------------------|
G|------0-------------------------------------5/4-----|
D|----2---2---2-----3------------5----------5-----2---|
A|--2-------2-----3---3---3----5---5---5--3-----------|
E|--------------1-------3---/3-------5----------------|
I have enough wasted time...what i dont have
E|----------------------------------------------------|
B|----------------------------------------------------|
G|------0---------------------------------5~----------|
D|----2---2---2-----3------------5--------------------|
A|--2-------2-----3---3---3----5---5---5--------------|
E|--------------1-------3---/3-------5----------------|

THEN CHORUS REPEAT 2X
I wear this costume of never ending shame but somehow i feel okay
Help me remember to forget i want to forget but your..
E|-------------------------------------------|
B|-------------------------------------------|
G|--55555555---------------------------------| 
D|--55555555-77777777-33333333-5x5x5x5-------| THEN PICK SLIDE
A|--33333333-77777777-33333333-5x5x5x5-//----|
E|-----------55555555-11111111-3x3x3x3-------|

REPEAT PRECHORUS PART
Beautiful and i cant stop myself from feeling numb
Im here waiting for you..
E|----------------------------------------------------|
B|----------------------------------------------------|
G|------0-------------------------------------5/4-----|
D|----2---2---2-----3------------5----------5-----2---|
A|--2-------2-----3---3---3----5---5---5--3-----------|
E|--------------1-------3---/3-------5----------------|

E|----------------------------------------------------|
B|----------------------------------------------------|
G|------0---------------------------------------------|
D|----2---2---2-----3------------5--------5~----------|
A|--2-------2-----3---3---3----5---5---5--3~----------|
E|--------------1-------3---/3-------5----------------|

THEN CHORUS PART
To break my heart....to break my heart..again 
E|-------------------------------------------|
B|-------------------------------------------|
G|--55555555---------------------------------| 
D|--55555555-77777777-33333333-5x5x5x5-------| THEN PICK SLIDE
A|--33333333-77777777-33333333-5x5x5x5-//----|
E|-----------55555555-11111111-3x3x3x3-------|


LAST CHORD
E|-------|
B|-------|
G|--5~---|
D|--5~---|
A|--3~---|
E|-------|

~END



comments
print report bad tab
2 comments total.
0 reply
guitar_girl29 wrote on December 26 2006, 06:09 am

hindi ba f#m po ata yun?=p

0 reply
jcrex2001 wrote on August 16 2012, 09:48 pm

i think its C-Am-F-Fm

I want to post or [tab]
guest
You may want to rate the tab now too:
select rating
Please do not post tabs as comments. Select "correction" instead!