Oops, an error
Loading. Please wait.

Guilt Kill Tab

652 views 1 this week
no commentswrite comment
1 2 3 4 5
3 more votes to show rating
add to favorites
launch autoscroll
font size
0
reset
how to read this tab
guitar tuner
Autoscroll
slow
fast
+/-
esc
set tempo
stop
Help us to improve Ultimate-Guitar.com Take our survey!
×
Difficulty
Tuning
intermediate
D A D G B E
Tabbed by:
Email:

Tuning:Drop D

e|-------------9-----|
B|-------5--7--------|
G|-------------------|(4x)
D|-------------------|
A|-------------------|
D|-------------------|
sbay psok n2
e|-----------------------------------------------------------------------------|
B|------------5-7--------------------------------5-7---------------------------|
G|-----6---6-----7-7-6--------------------6---6-----7-7-6----------------------|
D|-----------------------------------------------------------------------------|
A|-0-----9--------------9--5/10--------0----9--------------9--5/10-------------|
D|-----------------------------------------------------------------------------|
tpos plucking na...
e|--------------------------------------------|
B|---9---9---9--9--9--9--9-10-9-9-10-9--------|
G|----9---9---9--9--9--9--9------9------------|
D|--------------------------------------------|
A|--7---7---7-----------9------8------8-------|
D|-7---7---7---6--6--6------------------------|

e|--------------------------------------------------------|
B|--9--9--9--9---9--9--9--9---10-10--10-10-9--------------|
G|---9--9--9--9---9--9--9--9-9--9---9--------9---8--------|
D|--------------------------------------------------------|
A|-7------------7-----------9------8----------------------|
D|-7------------6-----------------------------------------|

e|---------------------------------------------------|
B|---------------------------------------------------|
G|---------------------------------------------------|
D|-777777777---777777777---444444444---777777777-----|
A|-777777777---777777777---444444444---555555555-----|
D|-777777777---666666666---444444444---000000000-----|
chorus
e|------------------------------------------------------------------|
B|------------------------------------------------------------------|
G|------------------------------------------------------------------|
D|-777777--777777--444444--0000000--4444444--22222222--0000000------|(2X)
A|-777777--777777--444444--0000000--4444444--22222222--0000000------|
D|-777777--666666--444444--0000000--4444444--22222222--0000000------|

UNG SUMUNOD SA 1ST CHORUS d ko PA TPUS KAPAIN EH..

YAN LANG MUNA..

95% SURE yan..
ung SA STRUB PKINGGAN NYO NLNG..
Suggest correction
Give kudos to tab author, rate the tab!
1 2 3 4 5
comments
print report bad tab
guest
You may want to rate the tab now too:
select rating
Wanna post a correction for this tab? Suggest correction