Oops, an error
Loading. Please wait.

Ifatuation Is Always There Bass Tab

312 views 1 this week
no commentswrite comment
1 2 3 4 5
3 more votes to show rating
add to favorites
launch autoscroll
font size
0
reset
guitar tuner
Autoscroll
slow
fast
+/-
esc
set tempo
stop
Help us to improve Ultimate-Guitar.com Take our survey!
×
Difficulty
novice
bY: GeRaLd gaZmin
eMail aD: geraldgazmin@yahoo.com
                                                           Typecast
                                                  Infatuation is Always There

Tab:

|-------------------------------------2-2-2--------2-2-2-|
|-------------------------------2-3-2--------2-3-2-------|
|----------------3-3-3-3-3h2-2-2-------------------------|
|-1-1-1-1-1-1-1------------------------------------------|

|-------------------------------------2-2-2--------------|
|-------------------------------2-3-2--------2-3-2~~-----|
|----------------3-3-3-3-3h2-2-2-------------------------|
|-1-1-1-1-1-1-1------------------------------------------|

|--------------------------------------------------------|
|--------------------------------------------------------|
|--------------------------------------------------------|
|-1-1--1-1--1-1--3-3--3-3--3-3--5-5--5-5--5-5--5-5-------|

|--------------------------------------------------------|
|--------------------------------------------------------|
|--------------------------------------------------------|
|-1-1--1-1--1-1--3-3--3-3--3-3--5-5--5-5--5-5--5-5-------|

|--------------------------------------------------------|
|--------------------------------------------------------|
|-3-3-3-3-3--2-2-2-2-2-----------------------------------|
|-----------------------5-5-5-5-5--3-3-3-3-3-3-3---------|

|--------------------------------------------------------|
|--------------------------------------------------------|
|-3-3-3-3-3--2-2-2-2-2-----------------------------------|
|-----------------------5-5-5-5-5--3-3-3-3-3-3-3---------|

|-------------------------------------2-2-2--------2-2-2-|
|-------------------------------2-3-2--------2-3-2-------|
|----------------3-3-3-3-3h2-2-2-------------------------|
|-1-1-1-1-1-1-1------------------------------------------|

|-------------------------------------2-2-2--------------|
|-------------------------------2-3-2--------2-3-2~~-----|
|----------------3-3-3-3-3h2-2-2-------------------------|
|-1-1-1-1-1-1-1------------------------------------------|

|--------------------------------------------------------|
|--------------------------------------------------------|
|-3-3-3-3-3--2-2-2-2-2-----------------------------------|
|-----------------------5-5-5-5-5--3-3-3-3-3-3-3---------|

|--------------------------------------------------------|
|--------------------------------------------------------|
|-3-3-3-3-3--2-2-2-2-2-----------------------------------|
|-----------------------5-5-5-5-5--3-3-3-3-3-3-3---------|

|-------------------------------------2-2-2--------2-2-2-|
|-------------------------------2-3-2--------2-3-2-------|
|----------------3-3-3-3-3h2-2-2-------------------------|
|-1-1-1-1-1-1-1------------------------------------------|

|-------------------------------------2-2-2--------------|
|-------------------------------2-3-2--------2-3-2~~-----|
|----------------3-3-3-3-3h2-2-2-------------------------|
|-1-1-1-1-1-1-1------------------------------------------|

|--------------------------------------------------------|
|--------------------------------------------------------|
|-3-3-3-3-3--2-2-2-2-2-----------------------------------|
|-----------------------5-5-5-5-5--3-3-3-3-3-3-3---------|

|--------------------------------------------------------|
|--------------------------------------------------------|
|-3-3-3-3-3--2-2-2-2-2-----------------------------------|
|-----------------------5-5-5-5-5--3-3-3-3-3-3-3---------|

|--------------------------------------------------------|
|--------------------------------------------------------|
|--------------------------------------------------------|
|-1-1--1-1--1-1--3-3--3-3--3-3--5-5--5-5--5-5--5-5-------|

|--------------------------------------------------------|
|--------------------------------------------------------|
|--------------------------------------------------------|
|-1-1--1-1--1-1--3-3--3-3--3-3--5-5--5-5--5-5--5-5-------|

|--------------------------------------------------------|
|--------------------------------------------------------|
|-3-3-3-3-3--2-2-2-2-2-----------------------------------|
|-----------------------5-5-5-5-5--3-3-3-3-3-3-3---------|

|--------------------------------------------------------|
|--------------------------------------------------------|
|-3-3-3-3-3--2-2-2-2-2-----------------------------------|
|-----------------------5-5-5-5-5--3-3-3-3-3-3-3---------|

|-------------------------------------2-2-2--------2-2-2-|
|-------------------------------2-3-2--------2-3-2-------|
|----------------3-3-3-3-3h2-2-2-------------------------|
|-1-1-1-1-1-1-1------------------------------------------|

|-------------------------------------2-2-2--------------|
|-------------------------------2-3-2--------2-3-2~~-----|
|----------------3-3-3-3-3h2-2-2-------------------------|
|-1-1-1-1-1-1-1------------------------------------------|

|--------------------------------------------------------|
|--------------------------------------------------------|
|-3-3-3-3-3--2-2-2-2-2-----------------------------------|
|-----------------------5-5-5-5-5--3-3-3-3-3-3-3---------|

|--------------------------------------------------------|
|--------------------------------------------------------|
|-3-3-3-3-3--2-2-2-2-2-----------------------------------|
|-----------------------5-5-5-5-5--3-3-3-3-3-3-3---------|

|--------------------------------------------------------|
|--------------------------------------------------------|
|-3-3-3-3-3--2-2-2-2-2-----------------------------------|
|-----------------------5-5-5-5-5--3-3-3-3-3-3-3---------|

|--------------------------------------------------------|
|--------------------------------------------------------|
|-3-3-3-3-3--2-2-2-2-2-----------------------------------|
|-----------------------5-5-5-5-5--3-3-3-3-3-3-3---------|

|--------------------------------------------------------|
|--------------------------------------------------------|
|--------------------------------------------------------|
|-1-1--1-1--1-1--3-3--3-3--3-3--5-5--5-5--5-5--5-5-------|

|--------------------------------------------------------|
|--------------------------------------------------------|
|--------------------------------------------------------|
|-1-1--1-1--1-1--3-3--3-3--3-3--5-5--5-5--5-5--5-5-------|

Lyrics:

i understand
what you're trying to say
no need to say it i am leaving
but don't walk away
just stay right there
i'll fall
and i'll just look at you
i'll just look at you

i don't know why
i always feel like this
it's hard to breathe when you're around
your big blue eyes are drowning me to sleep
the space is tearing me
i'll stay, please stay

words are not important
smiles are all i need from you
the yearning, it's getting stronger
i'm dumb
i hope you like me too

you're two tables away
you could see me mezmerised
i want to talk to you but im so scared
before i never cared
infatuation's never there
but now it's killing me
i really hate myself





Suggest correction
Give kudos to tab author, rate the tab!
1 2 3 4 5
comments
print report bad tab
guest
You may want to rate the tab now too:
select rating
Wanna post a correction for this tab? Suggest correction