Oops, an error
Loading. Please wait.

Infatuation Is Always There Tab

version 4
version 4

Interactive

1,322 views 1 this week
no commentswrite comment
1 2 3 4 5
please rate
add to favorites
launch autoscroll
font size
0
reset
how to read this tab
guitar tuner
Autoscroll
slow
fast
+/-
esc
set tempo
stop
Help us to improve Ultimate-Guitar.com Take our survey!
×
Contributor
paramore_fans 85,605
Typecast
The Infatuation is always there
The Infatuation is always there
2004
Submitted by: paramore_fans@yahoo.com
This song is a rip-off, originally by EARLY NOVEMBER's FLUXY!!! listen carefully, you 
hear thsoe resemblance!!!


Chords used:
F -   133211
C -   x32010
G/B - x2x003
Am -  x02210
G -   320003


Intro: F--G-G/B-Am(x2)

then
e|--------------------------------------------------------|
B|-----0-0-1-----0-0-1-----1-----0-0-1-----0-0-1-3-1-0----|
G|---------------------------0-0-------0-0-------------0--|
D|-3-3-------3-3-------3-3--------------------------------|
A|--------------------------------------------------------|
E|--------------------------------------------------------|
then
e|---------0---------0-----0---------0---------0-0h1p0---|
B|-----3-3-------3-3-------------3-3-------3-3---------1-|
G|-2-2-------2-2-------2-2---2-2-------2-2---------------|
D|-------------------------------------------------------|
A|-------------------------------------------------------|
E|-------------------------------------------------------|


Verse 1:
C         G/B                        Am
  I understand what you're trying to say
                   G
No need to say it, I am leaving
C                 G/B                  Am
  But don't walk away, just stay right there
              G                 F--G
I'll fall and i'll just look at you
               Am                 F     G--Am
I'll just look at you I just look at you
C              G/B                    Am
  I don't know why i always feel like this
                          G
It's hard to breathe when you're around
C                G/B                      Am
   Your big blue eyes are drowning me to sleep
                     G
The space is tearing me
                  F  G                  Am
I'll stay please stay I'll stay please stay
                  F  G                  Am
I'll stay please stay I'll stay please stay


Chorus:
C             C/B        Am              G
Words are not important Smiles are all i need from you
    C              C/B                  Am      G
The yearning, it's getting stronger I'm dumb, i hope you like me too


Do this twice
e|--------------------------------------------------------|
B|-----0-0-1-----0-0-1-----1-----0-0-1-----0-0-1-3-1-0----|
G|---------------------------0-0-------0-0-------------0--|
D|-3-3-------3-3-------3-3--------------------------------|
A|--------------------------------------------------------|
E|--------------------------------------------------------|
then
e|---------0---------0-----0---------0---------0-0h1p0---|
B|-----3-3-------3-3-------------3-3-------3-3---------1-|
G|-2-2-------2-2-------2-2---2-2-------2-2---------------|
D|-------------------------------------------------------|
A|-------------------------------------------------------|
E|-------------------------------------------------------|


Verse 2:
C              G/B                         Am
  You're two tables away, you could see me mezmerised
                  G              C
I want to talk to you but im so scared
               G/B                        Am
Before i never cared, infatuation's never there
                     G
But now it's killing me
                F   G                Am
I really hate myself I really hate myself
                F   G                Am
I really hate myself I really hate myself


(Repeat Chorus twice)


Do this twice
e|--------------------------------------------------------|
B|-----0-0-1-----0-0-1-----1-----0-0-1-----0-0-1-3-1-0----|
G|---------------------------0-0-------0-0-------------0--|
D|-3-3-------3-3-------3-3--------------------------------|
A|--------------------------------------------------------|
E|--------------------------------------------------------|
then
e|---------0---------0-----0---------0---------0-0h1p0---|
B|-----3-3-------3-3-------------3-3-------3-3---------1-|
G|-2-2-------2-2-------2-2---2-2-------2-2---------------|
D|-------------------------------------------------------|
A|-------------------------------------------------------|
E|-------------------------------------------------------|
Suggest correction new What's this?
You can suggest a correction to this tab. Community and Mods will review your correction and vote to approve or reject it.
comments
We did not receive enough feedback on this tab! Please rate:
print report bad tab
1 2 3 4 5
guest
You may want to rate the tab now too:
select rating
Please do not post tabs as comments. Select "correction" instead!