Oops, an error
Loading. Please wait.

Infatuation Is Always There Tab

version 5
version 5

Interactive

571 views 1 this week
no commentswrite comment
1 2 3 4 5
please rate
add to favorites
launch autoscroll
font size
0
reset
how to read this tab
guitar tuner
Autoscroll
slow
fast
+/-
esc
set tempo
stop
Help us to improve Ultimate-Guitar.com Take our survey!
×
Author
Title: The infatuation is always there
Artist: Typecast
Tabbed by:xEph
          xephtcetera@yahoo.com
          www.facebook.com/dualreality

Tuning: Standard

*This is tabbed for single guitar only and  not 100% accurate.*
*I would like to dedicate this tab to my friends who requested it.*
*For corrections, suggestions,etc... Just post it here or message me personally.*

Legend:
x - dead note
/ - Slide
()- Ghost notes
~ - Let it ring

*Just listen carefully to the song to "get it".* 


Intro:
E------------------------------------------------|
B------------------------------------------------|
G----------------5-(4)--4-5-4/9-9-----4-5-4/9-9--|
D-(3-3-3-3-3-3)--x-(x)--x-x-x/x-x-----x-x-x/x-x--|
A--3-3-3-3-3-3---3-(2)--2-3-2/7-7-----2-3-2/7-7--|
E--1-1-1-1-1-1-----------------------------------|

E-------------------------------------------------|
B-------------------------------------------------|
G----------------5-(4)---4-5-4/9-9-----4-5-4-4-4--|
D-(3-3-3-3-3-3)--x-(x)---x-x-x/x-x-----x-x-x-x-x--|
A--3-3-3-3-3-3---3-(2)---2-3-2/7-7-----2-3-2-2-2--|
E--1-1-1-1-1-1------------------------------------|

E-------------------------------------------------------------|
B-------------------------------------------------------------|
G----(4)4-55----(4)4-55-77-5(5)----(4)4-55----(4)4-55-77-5(5)-|
D-------------------------------------------------------------|
A-3-3--------3-3---------------5-5--------5-5-----------------|
E-1-1--------1-1---------------3-3--------3-3-----------------|

e-------------------------------------------------------------|
b----(3)3-55----(3)3-55-66-5(5)----(3)3-55----(3)3-55-66-5(5)-|
g----(4)4-55----(4)4-55-77-5(5)----(4)4-55----(4)4-55-77-5(5)-|
d-------------------------------------------------------------|
a-7-7-------7-7----------------7-7---------7-7----------------|
e-5-5-------5-5----------------5-5---------5-5----------------|
e-------------------------------------------------------------|

e---------------------------------------------------------------|
B---------------------------------------------------------------|
G----(4)4-55----(4)4-55-77-5(5)----(4)4-55-----(4)4-55-7-5-4----|
D-----------------------------------------------------------(5)-|
A-3-3-------3-3----------------5-5---------5-5------------------|
E-1-1-------1-1----------------3-3---------3-3------------------|

e------------------------------------------------------------------|
B----(3)3-55----(3)3-55-66-5(5)----(3)3-55----(3)3-55-6(6)-(5)-----|
G----(4)4-55----(4)4-55-77-5(5)----(4)4-55----(4)4-55-7(7)-(5)-----|
D------------------------------------------------------------------|
A-7-7--------7-7---------------7-7--------7-7----------------------|
E-5-5--------5-5---------------5-5--------5-5----------------------|



verse1:
E--------------------------------------------------3-------------------------|
B-----------------------------------------------(1)--------------------------| 
G(5)~----------(4)~--------------------(2)----(2)----------------------------|
D-5~------------5~----------------------2---(2)---------------(5)(5-5-5)-----|
A-3~------------2~----------------------0----------------------5-(5-5-5)-----|
E--------------------------------------------------------------3-(3-3-3)-----|
   I understand  What you're trying to say No need to say it   I am leaving

E-----------------------------------------------------3------------------------|
B--------------------------------------------------(1)-------------------------|
G(5)~---------------(4)~-------------------(2)---(2)---------------------------|
D-5~-----------------5~---------------------2--(2)----------------(5)(5-5-5)---|
A-3~-----------------2~---------------------0----------------------5-(5-5-5)---|
E------------------------------------------------------------------3-(3-3-3)---|
   But don't walk away Just stay right there    I'll fall    And i'll just look at

E----------------------------------------------------|
B----------------------------------------------------|
G----------------5-(4)------4-5-4/9-9-----4-5-4/9-9--|
D-(3-3-3-3-3-3)--x-(x)------x-x-x/x-x-----x-x-x/x-x--|
A--3-3-3-3-3-3---3-(2)------2-3-2/7-7-----2-3-2/7-7--|
E--1-1-1-1-1-1---------------------------------------|
   you....        I'll just look at you       I'll just 


E--------------------------------------------------|
B--------------------------------------------------|
G----------------5-(4)----4-5-4-4-4-----4-5-4-4-4--|
D-(3-3-3-3-3-3)--x-(x)----x-x-x-x-x-----x-x-x-x-x--|
A--3-3-3-3-3-3---3-(2)----2-3-2-2-2-----2-3-2-2-2--|
E--1-1-1-1-1-1-------------------------------------|
 look at you...    I'll just look at you



E-----------------------------------------------0----------------------------|
B--------------------------------------------(1)-----------------------------|
G(5)~----------(4)~--------------------(2)-(2)-------------------------------|
D-5~------------5~----------------------2-------------------------(5)(5-5-5)-|
A-3~------------2~----------------------0--------------------------5-(5-5-5)-|
E------------------------------------------------------------------3-(3-3-3)-|
   I don't know why I always feel like this  It's hard to breathe When you're around 


E-----------------------------------------------------3------------------------|
B--------------------------------------------------(1)-------------------------|
G(5)~---------------(4)~-------------------(2)---(2)---------------------------|
D-5~-----------------5~---------------------2--(2)----------------(5)(5-5-5)---|
A-3~-----------------2~---------------------0----------------------5-(5-5-5)---|
E------------------------------------------------------------------3-(3-3-3)---|
   Your big blue eyes Are drowning me to sleep  The space is tearing me i'll stay


E---------------------------------------------------------|
B---------------------------------------------------------|
G----------------5-(4)-----------4-5-4/9-9-----4-5-4/9-9--|
D-(3-3-3-3-3-3)--x-(x)-----------x-x-x/x-x-----x-x-x/x-x--|
A--3-3-3-3-3-3---3-(2)-----------2-3-2/7-7-----2-3-2/7-7--|
E--1-1-1-1-1-1--------------------------------------------|
   please stay...  I'll stay, please stay            I'll stay          

E--------------------------------------------------|
B--------------------------------------------------|
G----------------5-(4)----4-5-4-4-4-----4-5-4-4-4--|
D-(3-3-3-3-3-3)--x-(x)----x-x-x-x-x-----x-x-x-x-x--|
A--3-3-3-3-3-3---3-(2)----2-3-2-2-2-----2-3-2-2-2--|
E--1-1-1-1-1-1-------------------------------------|
   please stay...  I'll stay, please stay

Chorus

E------------------------------------------------------------------|
B------------------------------------------------------------------|
G-5-5-5-5-5-5-5-5-5-5-5-5-5-5-5-5----------------------------------|
D-5-5-5-5-5-5-5-5-5-5-5-5-5-5-5-5-7-7-7-7-7-7-7-7-5-5-5-5-5-5-5-5--|
A-3-3-3-3-3-3-3-3-2-2-2-2-2-2-2-2-7-7-7-7-7-7-7-7-5-5-5-5-5-5-5-5--|*counts are not exact,  
E---------------------------------5-5-5-5-5-5-5-5-3-3-3-3-3-3-3-3--|    just get it yourself*
  Words are not      important    smiles are all I need from you 


E------------------------------------------------------------------|
B------------------------------------------------------------------|
G-5-5-5-5-5-5-5-5-5-5-5-5-5-5-5-5----------------------------------|
D-5-5-5-5-5-5-5-5-5-5-5-5-5-5-5-5-7-7-7-7-7-7-7-7-5-5-5-5-5-5-5-5--|
A-3-3-3-3-3-3-3-3-2-2-2-2-2-2-2-2-7-7-7-7-7-7-7-7-5-5-5-5-5-5-5-5--|
E---------------------------------5-5-5-5-5-5-5-5-3-3-3-3-3-3-3-3--|
   the yearning,it's getting stronger im  dumb I hope you like me too


e---------------------------------------------------------------|
B---------------------------------------------------------------|
G----(4)4-55----(4)4-55-77-5(5)----(4)4-55-----(4)4-55-7-5-4----|
D-----------------------------------------------------------(5)-|
A-3-3-------3-3----------------5-5---------5-5------------------|
E-1-1-------1-1----------------3-3---------3-3------------------|

e-------------------------------------------------------------|
b----(3)3-55----(3)3-55-66-5(5)----(3)3-55----(3)3-55-66-5(5)-|
g----(4)4-55----(4)4-55-77-5(5)----(4)4-55----(4)4-55-77-5(5)-|
d-------------------------------------------------------------|
a-7-7-------7-7----------------7-7---------7-7----------------|
e-5-5-------5-5----------------5-5---------5-5----------------|

e---------------------------------------------------------------|
B---------------------------------------------------------------|
G----(4)4-55----(4)4-55-77-5(5)----(4)4-55-----(4)4-55-7-5-4----|
D-----------------------------------------------------------(5)-|
A-3-3-------3-3----------------5-5---------5-5------------------|
E-1-1-------1-1----------------3-3---------3-3------------------|

e------------------------------------------------------------------|
B----(3)3-55----(3)3-55-66-5(5)----(3)3-55----(3)3-55-6(6)-(5)-----|
G----(4)4-55----(4)4-55-77-5(5)----(4)4-55----(4)4-55-7(7)-(5)-----|
D------------------------------------------------------------------|
A-7-7--------7-7---------------7-7--------7-7----------------------|
E-5-5--------5-5---------------5-5--------5-5----------------------|

verse2:
E----------------------------------------------------3-------------------------|
B-------------------------------------------------(1)--------------------------|
G(5)~------------(4)~--------------------(2)----(2)----------------------------|
D-5~--------------5~----------------------2---(2)---------------(5)(5-5-5)-----|
A-3~--------------2~----------------------0----------------------5-(5-5-5)-----|
E----------------------------------------------------------------3-(3-3-3)-----|
  You're two tables away You could see me mesmerized I want to talk to you but im so scared

E-----------------------------------------------------3------------------------|
B--------------------------------------------------(1)-------------------------|
G(5)~---------------(4)~-------------------(2)---(2)---------------------------|
D-5~-----------------5~---------------------2--(2)----------------(5)(5-5-5)---|
A-3~-----------------2~---------------------0----------------------5-(5-5-5)---|
E------------------------------------------------------------------3-(3-3-3)---|
  Before i never cared, Infatuation's never there  But now it's killing me I really hate 

E----------------------------------------------------|
B----------------------------------------------------|
G----------------5-(4)------4-5-4/9-9-----4-5-4/9-9--|
D-(3-3-3-3-3-3)--x-(x)------x-x-x/x-x-----x-x-x/x-x--|
A--3-3-3-3-3-3---3-(2)------2-3-2/7-7-----2-3-2/7-7--|
E--1-1-1-1-1-1---------------------------------------|
  myself..        I really hate myself       I really hate


E--------------------------------------------------|
B--------------------------------------------------|
G----------------5-(4)----4-5-4-4-4-----4-5-4-4-4--|
D-(3-3-3-3-3-3)--x-(x)----x-x-x-x-x-----x-x-x-x-x--|
A--3-3-3-3-3-3---3-(2)----2-3-2-2-2-----2-3-2-2-2--|
E--1-1-1-1-1-1-------------------------------------|  
    myself...    I really hate myself 


Outro

E------------------------------------------------------------------|
B------------------------------------------------------------------|
G-5-5-5-5-5-5-5-5-5-5-5-5-5-5-5-5----------------------------------|
D-5-5-5-5-5-5-5-5-5-5-5-5-5-5-5-5-7-7-7-7-7-7-7-7-5-5-5-5-5-5-5-5--|
A-3-3-3-3-3-3-3-3-2-2-2-2-2-2-2-2-7-7-7-7-7-7-7-7-5-5-5-5-5-5-5-5--|*counts are not exact,  
E---------------------------------5-5-5-5-5-5-5-5-3-3-3-3-3-3-3-3--|    just get it yourself*
  Words are not      important    smiles are all I need from you 

E------------------------------------------------------------------|
B------------------------------------------------------------------|
G-5-5-5-5-5-5-5-5-5-5-5-5-5-5-5-5----------------------------------|
D-5-5-5-5-5-5-5-5-5-5-5-5-5-5-5-5-7-7-7-7-7-7-7-7-5-5-5-5-5-5-5-5--|
A-3-3-3-3-3-3-3-3-2-2-2-2-2-2-2-2-7-7-7-7-7-7-7-7-5-5-5-5-5-5-5-5--| 
E---------------------------------5-5-5-5-5-5-5-5-3-3-3-3-3-3-3-3--|
   the yearning,it's getting stronger im  dumb I hope you like me too

E------------------------------------------------------------------|
B------------------------------------------------------------------|
G-5-5-5-5-5-5-5-5-5-5-5-5-5-5-5-5----------------------------------|
D-5-5-5-5-5-5-5-5-5-5-5-5-5-5-5-5-7-7-7-7-7-7-7-7-5-5-5-5-5-5-5-5--|
A-3-3-3-3-3-3-3-3-2-2-2-2-2-2-2-2-7-7-7-7-7-7-7-7-5-5-5-5-5-5-5-5--|*counts are not exact,  
E---------------------------------5-5-5-5-5-5-5-5-3-3-3-3-3-3-3-3--|    just get it yourself*
  Words are not      important    smiles are all I need from you 

E------------------------------------------------------------------|
B------------------------------------------------------------------|
G-5-5-5-5-5-5-5-5-5-5-5-5-5-5-5-5----------------------------------|
D-5-5-5-5-5-5-5-5-5-5-5-5-5-5-5-5-7-7-7-7-7-7-7-7-5-5-5-5-5-5-5-5--|
A-3-3-3-3-3-3-3-3-2-2-2-2-2-2-2-2-7-7-7-7-7-7-7-7-5-5-5-5-5-5-5-5--| 
E---------------------------------5-5-5-5-5-5-5-5-3-3-3-3-3-3-3-3--|
   the yearning,it's getting stronger im  dumb I hope you like me too

Last Riff:

E-------------------------------------------------------------|
B-------------------------------------------------------------|
G----(4)4-55----(4)4-55-77-5(5)----(4)4-55----(4)4-55-77-5(5)-|
D-------------------------------------------------------------|
A-3-3--------3-3---------------5-5--------5-5-----------------|
E-1-1--------1-1---------------3-3--------3-3-----------------|

e-------------------------------------------------------------|
b----(3)3-55----(3)3-55-66-5(5)----(3)3-55----(3)3-55-66-5(5)-|
g----(4)4-55----(4)4-55-77-5(5)----(4)4-55----(4)4-55-77-5(5)-|
d-------------------------------------------------------------|
a-7-7-------7-7----------------7-7---------7-7----------------|
e-5-5-------5-5----------------5-5---------5-5----------------|

e---------------------------------------------------------------|
B---------------------------------------------------------------|
G----(4)4-55----(4)4-55-77-5(5)----(4)4-55-----(4)4-55-7-5-4----|
D-----------------------------------------------------------(5)-|
A-3-3-------3-3----------------5-5---------5-5------------------|
E-1-1-------1-1----------------3-3---------3-3------------------|

e---------------------------------------------------------------------|
B----(3)3-55----(3)3-55-66-5(5)----(3)3-55----(3)3-55-6(6)-(5)--------|
G----(4)4-55----(4)4-55-77-5(5)----(4)4-55----(4)4-55-7(7)-(5)--5~----|
D---------------------------------------------------------------5~----|
A-7-7--------7-7---------------7-7--------7-7-------------------3~----|
E-5-5--------5-5---------------5-5--------5-5-------------------------|

                          -end-

Suggest correction
What's this?
You can suggest a correction to this tab. Community and Mods will review your correction and vote to approve or reject it.
comments
We did not receive enough feedback on this tab! Please rate:
print report bad tab
1 2 3 4 5
guest
You may want to rate the tab now too:
select rating
Please do not post tabs as comments. Select "correction" instead!