Oops, an error
Loading. Please wait.

Kono Yakusoku Tab

version 1
version 1

Whole song

Interactive

4,341 views 12 this week
no commentswrite comment
1 2 3 4 5
please rate
add to favorites
launch autoscroll
font size
0
reset
how to read this tab
guitar tuner
Tab Pro tools
  • play this tab
  • loop segment
  • change instrument
  • show fretboard
  • metronome
×
Best way to learn
"Kono Yakusoku"
Autoscroll
slow
fast
+/-
esc
set tempo
stop
Contributor
Difficulty
intermediate
Band: Typecast
Title: Kono Yakusoku
Album: How Your Influence Betrays You


Tabbed by: Nathaniel M. Cortes & Marvin "Bordz" Manuel

we hope that you will like this one.



1st INTRO :

e--------6--------------8------------------|
B--4-6-8---8-6-4-~-4-6-8-8-6-4-------------|
G------------------------------------------|
D------------------------------------------|
A------------------------------------------|
E------------------------------------------|


Chords :Eb-G#m-C-G#m-C-Bb-Eb


Guitar 1
e------------------------------------------------|
B------------------------------------------------|
G-8---5---555-333-8------------------------------|
D-8-6-5-6-555-333-8------------------------------|
A-6-6-3-6-333-111-6------------------------------|
E----4---4---------------------------------------|


Guitar 2
e---------------------------|        e-6----------------------|
B-8-6-8-9-8-6-4-4-8---------|        B--8-6-8-9-8-6-----------|
G---------------------------|2X      G------------------------| 2x
D---------------------------|        D------------------------|
A---------------------------|        A------------------------|
E---------------------------|        E------------------------|

e-------------------------|
B---6-8-6-8h-9------------|
G-8----8------------------|
D-------------------------|
A-------------------------|
E-------------------------|

Verse 1 : C-Bb-G#m (4x)

e-----------------------------------------------------|
B-----------------------------------------------------|
G--------------------------------------12-13-12-10----|
D--------8-------10-------8-10-12-13-12---------------|
A-6-8-10--6-8-10---6-8-10-----------------------------|
E-----------------------------------------------------|

Chorus : Eb-G#m-C-G#m-C-Bb-Eb

e------------------------|     e------------------------|
B------------------------|     B-11---------------------|
G-12-10-12-13-12-10-8-8--|2X   G---12-10-12-13-12-10----|2X
D------------------------|     D------------------------|
A------------------------|     A------------------------|
E------------------------|     E------------------------|

e-------------------------------|
B---6-8-6-8-8h9-----------------|
G-8----8------------------------|
D-------------------------------|
A-------------------------------|
E-------------------------------|


Bridge 1 : C-Bb-G#m

e-----------------------------------------|
B-----------------------------------------|
G-----------------------------------------|
D--------8---------10-8-----------8----8--|
A-6-8-10--10-6-8-10----10-5-6-8-10-8h10---|
E-----------------------------------------|

e--------------------------------------------------|
B--------------------------------------------------|
G----------------------------------------12-13-12--|
D-13-12-10-8--------13-12-10-8-10-12-13-12---------|
A-----------10-8-6-8-------------------------------|
E--------------------------------------------------|


2nd Bridge C-Bb-G#m

e-------------------------------------------|
B-------------------------------------------|
G-555-777-888-101010-121212-101010-888------|
D-------------------------------------------|  2x
A-333-555-666-8-8-8--101010-8-8-8--666------|
E-------------------------------------------|

Repeat Chorus

3rd Bridge C-Bb-G#m

e-----------|     e--------------|
B--8h9-8----|     B--6-8-9-8-6---|
G-8---------|6X   G-8---------8--|
D-----------|     D--------------|
A-----------|     A--------------|
E-----------|     E--------------|

e-----------|     e--8-6-8-6-8-6-6--|
B--8h9-8----|     B-------------9---|
G-8---------|4X   G-8---8---8-------|
D-----------|     D-----------------|
A-----------|     A-----------------|
E-----------|     E-----------------|


Repeat Chorus


Guitar 1

Palm Mute
e--------|--------------------------------------------|
B--------|--------------------------------------------|
G-8------|--------5---555-333-8-----------------------|
D-8-6----|--------5-6-555-333-8-----------------------|
A-6-6----|--------3-6-333-111-6-----------------------|
E---4----|----------4---------------------------------|


Repeat: 1st Intro


e--------6--------------8-----------------|
B--4-6-8---8-6-4-~-4-6-8-8-6-4------------|
G-----------------------------------------|
D-----------------------------------------|
A-----------------------------------------|
E-----------------------------------------|


 timing na lan u po ok yan ^^
 Add u Na rin nathcba01@yahoo.com
 amakakekaru@yahoo.com


Typecast
Kono Yakusoku

Verse 1:

It's not as easy as it sounds
Like I'll be breaking down again
One thing that keeps me sane
Is the promise that we keep
But you're so calm
Yet so brave
I'll watch you sleep and wish
That this moment will never change


Chorus 1:

Go on I will be waiting here
Be strong nothing for you to fear
Hang on this isn't over
Go on I will be waiting here


Verse 2:

Plant my eyes on to the ground
And I will never make a sound
cause this is something I believe
That you'll be coming home to me
Distance again
our mortal enemy
We've been winning
all these years
So please don't give up
Don't give up on me


Chorus 2:

Go on I will be waiting here
Be strong nothing for you to fear
Hang on this isn't over
Go on I will be waiting here


Bridge:

This promise we made
I will hold in my hands
I will stay I will wait
cause I belong to you

If this ground never breaks
I'll be calm I'll be brave
I will stay I will wait
I will wait for you!!!


Chorus 3:

Go on I will be waiting here
Be strong nothing for you
Hang on this isn't over
Go on I will be waiting here


Outro:

This promise we made
I will hold in my hands
I will stay I will wait
cause I belong to you
If this ground never breaks
I'll be calm I'll be brave
I will stay I will wait
I will wait for you
comments
We did not receive enough feedback on this tab! Please rate:
print report bad tab
1 2 3 4 5
I want to post or [tab]
guest
You may want to rate the tab now too:
select rating
Please do not post tabs as comments. Select "correction" instead!