Oops, an error
Loading. Please wait.

Last Time bass

version 3
version 3

Whole song

Interactive

676 views 3 this week
1 commentread comment
1 2 3 4 5
3 more votes to show rating
add to favorites
×
Save as Personal and add changes to this tab that will be seen only by you. Learn more ›
×
You can save this tab as Personal to edit and correct it or add notes. All changes will be seen only by you. Learn more »
launch autoscroll
font size
0
reset
guitar tuner
edit
Autoscroll
slow
fast
+/-
esc
set tempo
stop
Difficulty
haha ito nga pala ung somplte bass ng lsttime super sure ako dyan tinutogtog nmin yan eh 
 
ble una intro muna ng lead sabayan mo n lng ng pa pisopiso
G|------------------------------------------|
D|--777-666--444--222-----------------------|
A|------------------------------------------|
E|------------------------------------------|
tpos ppsok ung bagsakn
G|------------------------------------------|
D|--7--7--7--7-77--7--7--7--7---------------|
A|------------------------------------------|
E|------------------------------------------|
tapos dun sa parteng slide 
G|------------------------------------------|
D|--777(slide 2)9-(slide 2)11--12-11--------|
A|------------------------------------------|
E|------------------------------------------|
tapos blik dun sa intro gyon di kana mag 
pipisopiso i base muna sabayan mo lang ung hagod ng drum
G|------------------------------------------|
D|--777-666--444--222-----------------------|
A|------------------------------------------|
E|------------------------------------------|
tapos pagdating dun sa (i never take advantge and i dnt hve d guts)
(she drop me out she leaving me)
G|--555-777---------------------------------|
D|----------77--66--44--22------------------|
A|------------------------------------------|
E|------------------------------------------|
tpos ung chorus prang intro lang
pagkatpos ng chorus blik ulit dun sa bagsakan
tpos ito ung sunod
G|----------55--77--------------------------|
D|--44--77----------------------------------|
A|------------------------------------------|
E|------------------------------------------|
paulit ulit2x lng yan hnggng sa pmsok n ulit ung intro

tapos chorus ulit


o yan mag injoy sana kayo praktsin nyo lng parate  

tab by:((SCREMOO))((RANGERS))
Suggest correction
Creating personal tab
Creating personal tab
You can edit any tab online and save it as your Personal.

You can edit, replace or remove any tab part or add personal notes – all changes will be seen only by you.

Personal tabs can be accessed anytime from any device, even offline.
Learn more »
Give kudos to tab author, rate the tab!
1 2 3 4 5
comments
print report bad tab
1 comment total.
0 reply
EMOtionalpunkz2 10 Jan 20, 2007 07:58 PM

mali tol... ang taas, dpat nsa A-----7 mag umpisa... ndi sa D---7
Kc dapat A-7.....-6...... E-9.......-7........

guest
Wanna post a correction for this tab? Suggest correction