Oops, an error
Loading. Please wait.

Last Time bass

version 5
version 5

Whole song

Interactive

1,901 views 1 this week
no commentswrite comment
1 2 3 4 5
1 last vote to show rating
add to favorites
×
Save as Personal and add changes to this tab that will be seen only by you. Learn more ›
×
You can save this tab as Personal to edit and correct it or add notes. All changes will be seen only by you. Learn more »
launch autoscroll
font size
0
reset
guitar tuner
edit
Autoscroll
slow
fast
+/-
esc
set tempo
stop
Author
Difficulty
Last Time by Typecast
add nyu poh me s frendster: haste_bleed_die@yahoo.com

Bale kapa q to ksma ang kabanda,prang tamang tama n rn pag isa2bay nyu s gitara... enjoy 
poh \m/... sna i rate nyu rn poh... salamat.
"I-Scream band" Timing lng poh to...

Tuning: Standard

Legends used:
/- slide up
\- slide down
h- Hammer on
~- Ring

Intro:
G|-----------------------------------------------|
D|-----------------------------------------------|
A|-7--06-----------------------------------------|
E|--------09--07----7~---------------------------|

Song Progression: (Slide Part)
G|-------------------------------------------------------|
D|-------------------------------------------------------|
A|-7777777777777777777777777777--7777777/99/11h12-7/12\7-|
E|-------------------------------------------------------|

Pre-Verse:
G|--------------------------------------------------------------|
D|--------------------------------------------------------------|
A|-77777777777777-66666666666666--------------------------------|
E|-------------------------------99999999999999-77777777777777--|

Verse1:
G|------------------------------------------------------------------|
D|------------------------------------------------------------------|
A|-7777-777-777--6666-666-666---------------------------------------|
E|-----------------------------9999-999-999--7777-777-777-77-07-3/7-|

Chorus and Pre-Verse:
G|--------------------------------------------------------------|
D|--------------------------------------------------------------|
A|-77777777777777-66666666666666--------------------------------|
E|-------------------------------99999999999999-77777777777777--|

Verse2:
G|------------------------------------------------------------------|
D|------------------------------------------------------------------|
A|-7777-777-777--6666-666-666---------------------------------------|
E|-----------------------------9999-999-999--7777-777-777-77-07-3/7-|

"REPEAT PRE-VERSE"

Then...
G|-------------------------------------------------------------------|
D|-------------------------------------------------------------------|
A|---------------------------77777-66666-----------------------------|
E|-555555555555-777777777777-------------9999999999999-7777777777777-|

Chorus:
G|--------------------------------------------------------------|
D|--------------------------------------------------------------| (2x)
A|-77777777777777-66666666666666--------------------------------|
E|-------------------------------99999999999999-77777777777777--|

Slide Part2: (Observe nyu mabuti tong part n to)
G|-------------------------------------------------------|
D|-------------------------------------------------------|
A|-7777777777777777777777777777--7777777/99/11h12-4/12\4-|
E|-------------------------------------------------------|

Then...
G|----------------------------------------------------------------|
D|----------------------------------------------------------------| (2x)
A|-44444444-77777777----------------------------------------------|
E|-------------------555555555-7777777777-------------------------|

Then... Gawin nyu tong part n to...
G|------------------------------------------------------------------------|
D|------------------------------------------------------------------------|
A|-4444444/7777777/9999-11--9--7-7-6-77777777-66666666--4h5-4444-2h3-3333-|
E|---------------------------------------------------------------------2-0|

Slow Part: It't the last time that i push through you... Gawin nyu tung part n to:

G|-----------------------------------------------|
D|-----------------------------------------------|
A|-7--06-----------------------------------------|
E|--------09--07---------------------------------|

Chorus and Pre-Verse:
G|--------------------------------------------------------------|
D|--------------------------------------------------------------| (2x)
A|-77777777777777-66666666666666--------------------------------|
E|-------------------------------99999999999999-77777777777777--|

Outro: Eto n ung patapos n part s huli...
G|-----------------------------------------------|
D|-----------------------------------------------|
A|------------------------------2----------------|
E|-555555555--7777777777777----------------------|
                                Doesen't make any sense, Last Time.

"End of Song"

Comments and Suggestions? Email nyu lng poh me; haste_bleed_die@yahoo.com
Suggest correction
Creating personal tab
Creating personal tab
You can edit any tab online and save it as your Personal.

You can edit, replace or remove any tab part or add personal notes – all changes will be seen only by you.

Personal tabs can be accessed anytime from any device, even offline.
Learn more »
Give kudos to tab author, rate the tab!
1 2 3 4 5
comments
print report bad tab
guest
You may want to rate the tab now too:
select rating
Wanna post a correction for this tab? Suggest correction