Oops, an error
Loading. Please wait.

Last Time tab

version 5
version 5

Interactive

1,143 views 1 this week
2 commentsread comments
1 2 3 4 5
x 3
add to favorites
×
Save as Personal and add changes to this tab that will be seen only by you. Learn more ›
×
You can save this tab as Personal to edit and correct it or add notes. All changes will be seen only by you. Learn more »
launch autoscroll
font size
0
reset
how to read this tab
guitar tuner
edit
Autoscroll
slow
fast
+/-
esc
set tempo
stop
Author
Difficulty
Last Time Tab by Typecast
tabbed by: Aldrix Tavas & Remwel 

Just listen to the song and you’ll get it easier...   

standard tuning

intro:
guitar 1:
E-------------------------------------------------------|
B-----9-10--9-------9-10--9------9-10--9-------9-10--9--|
G------9-----9-------9-----9-------9----9-------9-----9-|
D-------------9-------------9------------9-------------9|
A--7-------------7-------------6------------6-----------|
E-------------------------------------------------------|

E-------------------------------------------------------|
B-----9-10--9-----9-10--9--------9-10--9------9~--------|
G------9-----9-----9-----9--------9-----9-----9~--------|
D-------------9-----------9--------------9----9~--------|
A---------------------------------------------7~--------|
E--9-----------9------------7---------------------------|

guitar 1&2  
E-------------------------------------------------------|
B-------------------------------------------------------|
G--9-0-0-9-0-0-9-0-0-9----------------------------------|
D--9-0-0-9-0-0-9-0-0-9----------------------------------|
A--7-0-0-7-0-0-7-0-0-7----------------------------------|
E----0-0---0-0---0-0------------------------------------|

guitar 2: 
E-------------------------------------------------------|
B-------------------------------------------------------|
G--9-9-9-9--9/11--11/13--13--13/14/13-------------------|
D--x-x-x-x--x/x---x-/x---x---x-/x-/x--------------------|
A--7-7-7-7--7/9---9-/11--11--11/12/11-------------------|
E-------------------------------------------------------|

(Repeat intro)

guitar 1:
E---------------------------------------------------------|
B-----9-10--9-------9-10--9------9-10--9-------9-10--9----|
G------9-----9-------9-----9-------9----9-------9-----9---|
D-------------9-------------9------------9-------------9--|
A--7-------------7-------------6------------6-------------|
E---------------------------------------------------------|

E----------------------------------------------------------|
B-----9-10--9-----9-10--9--------9-10--9------9~-----------|
G------9-----9-----9-----9--------9-----9-----9~-----------|
D-------------9-----------9--------------9----9~-----------|
A---------------------------------------------7~-----------|
E--9-----------9------------7------------------------------|
						 she said its over,,,,

both guitars:
E-----------|---------------------------------------------------|
B-----------|---------------------------------------------------|
G--9-0-0----|---9-9-9-9-9-9-9-9-9-9-9-9-9-9-9-9-9-9-9-9-9-9-9---|
D--9-0-0----|---x-x-x-x-x-x-x-x-x-x-x-x-x-x-9-9-9-9-9-9-9-9-9---|
A--7-0-0-9--|---7-7-7-7-7-7-7-7-6-6-6-6-6-6-x-x-x-x-x-x-x-x-x---|
E--------7--|-------------------------------9-9-9-9-7-7-7-7-7---|
and i don't stand a chance she said it honestly i wished that she lied

guitar 1:
E-------------------------------------------------------|
B-----9-10--9-------9-10--9------9-10--9-------9-10--9--|
G------9-----9-------9-----9-------9----9-------9-----9-|
D-------------9-------------9------------9-------------9|
A--7-------------7-------------6------------6-----------|
E-------------------------------------------------------|

E-------------------------------------------------------|
B-----9-10--9-----9-10--9--------9-10--9------9~--------|
G------9-----9-----9-----9--------9-----9-----9~--------|
D-------------9-----------9--------------9----9~--------|
A---------------------------------------------7~--------|
E--9-----------9------------7---------------------------|
			 her words said it all minus me minus the actions 

E-----------|---------------------------------------------------|
B-----------|---------------------------------------------------|
G--9-0-0----|---9-9-9-9-9-9-9-9-9-9-9-9-9-9-9-9-9-9-9-9-9-9-9---|
D--9-0-0----|---x-x-x-x-x-x-x-x-x-x-x-x-x-x-9-9-9-9-9-9-9-9-9---|
A--7-0-0-9--|---7-7-7-7-7-7-7-7-6-6-6-6-6-6-x-x-x-x-x-x-x-x-x---|
E--------7--|-------------------------------9-9-9-9-7-7-7-7-7---|
		and the understanding she will never do
	
both guitars:
E------------------------------------------------------|
B------------------------------------------------------|
G------------------------------------------------------|
D--7-7-7-7-7-7-7-7--------------9-9-9-9-9-9------------|
A--7-7-7-7-7-7-7-7--------------9-9-9-9-9-9------------|
E--5-5-5-5-5-5-5-5--------------7-7-7-7-7-7------------|
   "i never take advantage.......and i dont have the guts..."
 
both guitars:
E------------------------------------------------|
B------------------------------------------------|
G---------9-9-9---9-9-9--9-9-9-9-----9-9-9-9-9---|
D---------x-x-x---x-x-x--9-9-9-9-----9-9-9-9-9---|
A---------7-7-7---6-6-6--x-x-x-x-----x-x-x-x-x---|
E------------------------9-9-9-9-----7-7-7-7-7---|
          she.....drop...out.........she's leavin me...


Chorus: 
E-------------------------------------------------------|
B-----9-10--9-------9-10--9------9-10--9-------9-10--9--|
G------9-----9-------9-----9-------9----9-------9-----9-|
D-------------9-------------9------------9-------------9|
A--7-------------7-------------6------------6-----------|
E-------------------------------------------------------|
its the last time did i pushed too hard? 

E-------------------------------------------------------|
B-----9-10--9-----9-10--9--------9-10--9------9~--------|
G------9-----9-----9-----9--------9-----9-----9~--------|
D-------------9-----------9--------------9----9~--------|
A---------------------------------------------7~--------|
E--9-----------9------------7---------------------------|
you didn't mean to make me cry  but thats okay who's wrong? 

E-------------------------------------------------------|
B-----9-10--9-------9-10--9------9-10--9-------9-10--9--|
G------9-----9-------9-----9-------9----9-------9-----9-|
D-------------9-------------9------------9-------------9|
A--7-------------7-------------6------------6-----------|
E-------------------------------------------------------|
and understanding you'll never understand 

E-------------------------------------------------------|
B-----9-10--9-------9-10--9------9-10--9-------9-10--9--|
G------9-----9-------9-----9-------9----9-------9-----9-|
D-------------9-------------9------------9-------------9|
A--7-------------7-------------6------------6-----------|
E-------------------------------------------------------|
what you think and what i feel doesn't make any sense

Bridge:
Both guitar:
E-------------------------------------------------------|
B-------------------------------------------------------|
G--9-0-0-9-0-0-9-0-0-9----------------------------------|
D--9-0-0-9-0-0-9-0-0-9----------------------------------|
A--7-0-0-7-0-0-7-0-0-7----------------------------------|
E----0-0---0-0---0-0------------------------------------|

guitar 2: 
E-------------------------------------------------------|
B-------------------------------------------------------|
G--9-9-9-9--9/11--11/13--13--13/14/13-------------------|
D--x-x-x-x--x/x---x-/x---x---x-/x-/x--------------------|
A--7-7-7-7--7/9---9-/11--11--11/12/11-------------------|
E-------------------------------------------------------|


both guitars
e|----------------------------------------|
B|----------------------------------------|
G|--6666--6/9999--------------------------|
D|--xxxx--x/xxxx--------------------------|
A|--4444--4/7777--77777-7/99999-----------|
E|----------------55555-5/77777-----------|

guitar 2: 
e|------------------------------------------------|
B|------------------------------------------------|
G|-6666-66/9-999-9/11-111111-11/13--11-9-8/99999--|
D|-xxxx-xx/x-xxx-x/x--x-x-x--x-/x---x--x-x/xxxxx--|
A|-4444-44/7-777-7/9--9-9-9--9-/11--9--7-6/66666--|
E|------------------------------------------------|

|---------------------------------------|
|-88888--6/8/6-666--4/6/4---------------|
|-xxxxx--x/x/x-xxx--x/x/x------------2--|
|-66666--4/6/4-444--2/4/2----44/6/4--2--|
|----------------------------22/4/2--0--| 

(Repeat chorus)

ending:
e|---------------------------|
B|---------------------------|
G|---------------------------|
D|---7777777--999999-----2~--|
A|---7777777--999999-----2~--|
E|---5555555--777777-----0~--|

Yan it’s our 1st tab… sana magustuhan ni0... Para to sa mga tropa ko sa Villa Luisa
Homes, La salle Home boys, our band, especially sa GF ko… Pki RATE nlng din……
Un Lang… R0cK 0n \ ,, /   

            
            
Suggest correction
Creating personal tab
Creating personal tab
You can edit any tab online and save it as your Personal.

You can edit, replace or remove any tab part or add personal notes – all changes will be seen only by you.

Personal tabs can be accessed anytime from any device, even offline.
Learn more »
Give kudos to tab author, rate the tab!
1 2 3 4 5
comments
print report bad tab
2 comments total.
0 reply
No_Falter08 2,414 Oct 04, 2006 01:40 AM

ang glng naman ng ver.3 nitong tab n ito!!

0 reply
drewrockz16 10 Apr 22, 2007 05:27 AM

TOL LUFAITH MO KEEP FAITH IN ROCK!

guest
You may want to rate the tab now too:
select rating
Wanna post a correction for this tab? Suggest correction