Oops, an error
Loading. Please wait.

Reverends Daughter Tower Sessions Tab

7,512 views 12 this week
no commentswrite comment
1 2 3 4 5
excellent!
x 3
add to favorites
launch autoscroll
font size
0
reset
how to read this tab
guitar tuner
Autoscroll
slow
fast
+/-
esc
set tempo
stop
Help us to improve Ultimate-Guitar.com Take our survey!
×
Contributor
Difficulty
intermediate
This tab is not perfect because i only cipher this through my acoustic guitar.
Suggestions and Comments are acceptable if you think there are some flaws in my tabs.

I found it so easy so i guess you can catch it easily.
This version is from the Typecast Reverend's Daughter Tower Session
(http://youtu.be/mhJmkJQAFd8).
I choose this one because the recording is very clean.

*Standard Tuning
*GUITAR #1 (Steve Badiola)
*GUITAR #2 (Pakoy Fletchero)

for Comments and Suggetions please email me here : voltaireriatlov@yahoo.com
or you can message me in my FB account : www.facebook.com/voltairecarpeso


GUITAR #1

(0:17)
---------------------------------------------------------------------|
--10-----------------10-----------------10-----------------10--------|
-----7----------7-------7----------7-------7----------7-------7------|
-------9-7--7h9---9-------9-7--7h9---9-------9-7--7h9---9-------9-7--|
---------------------------------------------------------------------|
---------------------------------------------------------------------|

(0:29)
------------------------------------------------------------------------------|
-----------10-----------------10-----------------10-----------------10--------|
-------7------7----------7-------7----------7-------7----------7-------7------|
---7h9---9------9-7--7h9---9-------9-7--7h9---9-------9-7--7h9---9-------9-7--|
------------------------------------------------------------------------------|
------------------------------------------------------------------------------|

(0:42)
-----------------------------------------------|
------------10-------10------------------------|
-------7-------7--------7--------------------7-|
---7h9-----------9-7------9-7----(4x)----7h9---|
-----------------------------------------------|
-----------------------------------------------|

(0:55)
-------------------------------------------------------------|
-------------------------------------------------------------|
---------------7-6--------------------7-6--------------------|
-5--5--------7-----7----------------7-----7--------(2x)------|
-5--5----7h9---------7h9-7h9----7h9---------7h9--------------|
-3--3--------------------------------------------------------|

(1:19)
--------------------------10-9--------10-9------------------------------|
--7---10------------------------10--------------------------------------|
----9----6-7------(2x)-------------9------------777777777---------------|
(ringing strum)------------(ringing strum)------777777777----777777777--|
------------------------------------------------555555555----777777777--|
-------------------------------------------------------------555555555--|

(1:44)
-----------------------------------------------|
-----------------------------------------------|
-----------------------------------------------|
-55555555555555555---44444444444---8888888888--|
-55555555555555555---44444444444---9999999999--|
-33333333333333333---22222222222---6666666666--|

--------------------------------------------------------|
--------------------------------------------------------|
-------------------------------------------7-6-------6--|
-55555555555555555---44444444444---88888-------9-7-9----|
-55555555555555555---44444444444---99999----------------|
-33333333333333333---22222222222---66666----------------|

(2:08)
----------------------------------------------------------------------------------------|
----------------------------------------------------------------------------------------|
--7-6-------------------77-66-------------------77-66-----------------77-66-------------|
------99----7777---7----------77-99-7777---7----------99----7777---7--------77-99-7---7-|
---------99------9-----------------------9---------------99------9------------------9---|
----------------------------------------------------------------------------------------|

-----------------------------------------------------------------------------------------------|
-----------------------------------------------------------------------------------------------|
----6-77-66-----------------77-66-----------------77-66-----------------77-66------------------|
--9---------99----7777---7--------77-99-7777---7--------99----7777---7--------77-99-7777-7/9-7-|
---------------99------9---------------------9-------------99------9---------------------------|
-----------------------------------------------------------------------------------------------|

(2:32)
--------------------------10-9--------10-9------------------------------|
--7---10------------------------10--------------------------------------|
----9----6-7------(2x)-------------9------------777777777---------------|
(ringing strum)------------(ringing strum)------777777777----777777777--|
------------------------------------------------555555555----777777777--|
-------------------------------------------------------------555555555--|


(2:56)
--------------------------------------------------------|
--------------------------------------------------------|
--------------------------------------------------------|
-55555555555555555---44444444444---8888888888-(2x)---9--|
-55555555555555555---44444444444---9999999999--------9--|
-33333333333333333---22222222222---6666666666--------7--|


(3:21)

---------------------------------------------|
---------------------------------------------|
---------------------------------------------|
---------------------------------------------|
-------5-----------5----------5----------5---|
-7-757---757---757---757--757---757--757-----|

-----------------------------------------------|
-----------------------------------------------|
-----------------------------------------------|
-----------------------------------------------|
-------5-----------5----------5----------5-----|
-7-757---757---757---757--757---757--757---75--|

-----------------------------------------------|
-----------------------------------------------|
-----------------------------------------------|
-----------------------------------------------|
-------2----------2--------5-5/7\5---7-7/9-7---|
-3-323---323--323---32--55---------6-----------|

-----------------------------------------------|
-----------------------------------------------|
-----------------------------------------------|
-----------------------------------------------|
-------5-----------5----------5----------5-----|
-7-757---757---757---757--757---757--757---75--|

--------------------------------------|
--------------------------------------|
--------------------------------------|
--------------------------------------|
-------2----------2--------5-5/7\5----|
-3-323---323--323---32--55---------6--|


---------------------------------------------------------------------|
--10-----------------10-----------------10-----------------10--------|
-----7----------7-------7----------7-------7----------7-------7------|
-------9-7--7h9---9-------9-7--7h9---9-------9-7--7h9---9-------9-7--|
---------------------------------------------------------------------|
---------------------------------------------------------------------|

-------7-------------------7-------------------7------------7---|
---------10------------------10------------------10---------10--|
-----7------7--------7----------7--------7----------7-------7---|
-7h9----------9--7h9---9----------9--7h9---9----------9-----9---|
----------------------------------------------------------------|
----------------------------------------------------------------|


(4:14)
---------------------------------------------------|
---------------------------------------------------|
---------------------------------------------------|
--5555-5555-5555-5555--9999-9999-9999-9999---(2x)--|
--5555-5555-5555-5555--9999-9999-9999-9999---------|
--3333-3333-3333-3333--7777-7777-7777-7777---------|

(4:37)
--------------------------------------------------|
--------------------------------------------------|
--------------------------------------------------|
-55555--77777777-99999-99999-999--55555-77777777--|
-55555--77777777-99999-99999-999--55555-77777777--|
-33333--55555555-77777-77777-777--33333-55555555--|


(4:46)
-----------------------------|
--10-------10----------------|
-----7--------7----------7---|
-------9-7------9-7--7h9-----|
-----------------------------|
-----------------------------|

(4:49)
----------------------------------|
----------------------------------|
----------------------------------|
-55555--77777777-99999-99999-999--|
-55555--77777777-99999-99999-999--|
-33333--55555555-77777-77777-777--|

(4:55)
-----------------------------------|
--10-------10----------------------|
-----7--------7----------7---------|
-------9-7------9-7--7h9----(2x)---|
-----------------------------------|
-----------------------------------|

-------------------------|
-------------------------|
-------------------------|
--5555-5555-4444-88-88---|
--5555-5555-4444-99-99---|
--3333-3333-2222-66-66---|



GUITAR #2


(0:30)
-------------------------------------------------|
-------------------------------------------------|
-------------------------------------------------|
---------12-11-----------------12-11-------------|
--4-5/12-------12-7h9-7\4-5/12-------12-7h9-7\5--|
-------------------------------------------------|

(0:42)
-----------------------------------------------------------------|
-----------------------------------------------------------------|
--7777-6666-6/7-6/7--7777-9999-9/11-9\5--------7777--------------|
--xxxx-xxxx-xxx-xxx--xxxx-xxxx-xxx--xxx--(2x)--xxxx-(let ring)---|
--5555-4444-4/5-4/5--5555-7777-7/9--7\5--------5555--------------|
-----------------------------------------------------------------|


(1:01)
------------------------------------------------------------------|
-----------------------------7--------------------7777------------|
--------7-6-------6h7----------9-7-7-6-7-9-7-6-7--7777------------|
------7-----7--------------7----------------------xxxx-(let ring)-|
--7h9---------7h9------7h9------------------------5555------------|
------------------------------------------------------------------|

(1:13)
--------------------------------------------------|
-----------------------------7--------------------|
--------7-6-------6h7----------9-7-7-6-7-9-7-6-7--|
------7-----7--------------7----------------------|
--7h9---------7h9------7h9------------------------|
--------------------------------------------------|


(1:19)
---------------------------------------------------------|
---------------------------------------------------------|
----------------------------------11h12-9h11-9h11--------|
--11h12-11h12-14-12-11h12---11h12------------------(2x)--|
---------------------------------------------------------|
---------------------------------------------------------|


---10-9-------10-9-------10-9-------10-9---------|
--------10---------10---------10---------10------|
-----------11---------11---------11---------11---|
-------------------------------------------------|
-------------------------------------------------|
-------------------------------------------------|

---------------------------------------------------------|
---------------------------------------------------------|
----------------------------------11h12-9h11-9h11--------|
--11h12-11h12-14-12-11h12---11h12------------------(2x)--|
---------------------------------------------------------|
---------------------------------------------------------|


(1:39)
---10-9-------10-9----------------------------------xxx---|
--------10---------10-------------------------------xxx---|
-----------11---------11--11-11-11-11-11--9999999---xxx---|
--------------------------x-x-x-x-x-x-x---xxxxxxx---xxx---|
--------------------------9-9-9-9-9-9-9---7777777---xxx---|
----------------------------------------------------xxx---|

(1:44)
-----------------------------------------------------------------------------------|
-----------------------------------------------------------------------------------|
------------9/11-111111-\999-9/11-111111-\9-666-777-9999999-666-777-11111111111111-|
------------xxx--x-x-x--xxxx-xxx--x-x-x--xx-xxx-xxx-xxxxxxx-xxx-xxx-xxxxxxxxxxxxx--|
--5555555---7/9--9-9-9--\777-7/9--9-9-9--\7-444-555-7777777-444-555-9-9-9-9-9-9-9--|
--3333333--------------------------------------------------------------------------|

(1:56)
-----------------------------------------------------------------------------------|
---------------------------------------------------------------------7-------------|
------------9/11-111111-\999-9/11-111111-\9-666-777-9999999-666-777----9-7-6-7-9---|
------------xxx--x-x-x--xxxx-xxx--x-x-x--xx-xxx-xxx-xxxxxxx-xxx-xxx----------------|
--5555555---7/9--9-9-9--\777-7/9--9-9-9--\7-444-555-7777777-444-555----------------|
--3333333--------------------------------------------------------------------------|


(2:08)
------------------------------------------------------------------------------------|
------------------------------------------------------------------------------------|
------7-6h7-6-----9-6h7-6---7-6h7-6-----9-6h7-6---7-6h7-6-----9-6h7-6---7-6h7-6-----|
--7/9---------7-9---------9---------7-9---------9---------7-9---------9---------7-9-|
------------------------------------------------------------------------------------|
------------------------------------------------------------------------------------|

(2:19)
------------------------------------------------------------|
----7---10--------------------------------------------------|
-----------7--1111-99-77-66-777777--1111-99-77-66-77777-14--|
--9---9-------x-x--xx-xx-xx-xxxxxx--x-x--xx-xx-xx-xxxxx-x---|
--------------9-9--77-55-44-555555--9-9--77-55-44-55555-12--|
------------------------------------------------------------|

--------------------------------------------------|
--------------------------------------------------|
--1111-99-77-66-777777--99-77-66-66-111111111111--|
--x-x--xx-xx-xx-xxxxxx--xx-xx-xx-xx-x-x-x-x-x-x---|
--9-9--77-55-44-555555--77-55-44-55-9-9-9-9-9-9---|
--------------------------------------------------|

(2:32)
---------------------------------------------------------|
---------------------------------------------------------|
----------------------------------11h12-9h11-9h11--------|
--11h12-11h12-14-12-11h12---11h12------------------(2x)--|
---------------------------------------------------------|
---------------------------------------------------------|

---10-9-------10-9-------10-9-------10-9---------|
--------10---------10---------10---------10------|
-----------11---------11---------11---------11---|
-------------------------------------------------|
-------------------------------------------------|
-------------------------------------------------|

---------------------------------------------------------|
---------------------------------------------------------|
----------------------------------11h12-9h11-9h11--------|
--11h12-11h12-14-12-11h12---11h12------------------(2x)--|
---------------------------------------------------------|
---------------------------------------------------------|

---10-9-------10-9----------------------------------|
--------10---------10-------------------------------|
-----------11---------11--11-11-11-11-11--9999999---|
--------------------------x-x-x-x-x-x-x---xxxxxxx---|
--------------------------9-9-9-9-9-9-9---7777777---|
----------------------------------------------------|


(2:56)
-----------------------------------------------------------------------------------|
-----------------------------------------------------------------------------------|
------------9/11-111111-\999-9/11-111111-\9-666-777-9999999-666-777-11111111111111-|
------------xxx--x-x-x--xxxx-xxx--x-x-x--xx-xxx-xxx-xxxxxxx-xxx-xxx-xxxxxxxxxxxxx--|
--5555555---7/9--9-9-9--\777-7/9--9-9-9--\7-444-555-7777777-444-555-9-9-9-9-9-9-9--|
--3333333--------------------------------------------------------------------------|

-----------------------------------------------------------------------------------|
-----------------------------------------------------------------------------------|
------------9/11-111111-\999-9/11-111111-\9-666-777-9999999-666-777-11111111111111-|
------------xxx--x-x-x--xxxx-xxx--x-x-x--xx-xxx-xxx-xxxxxxx-xxx-xxx-xxxxxxxxxxxxx--|
--5555555---7/9--9-9-9--\777-7/9--9-9-9--\7-444-555-7777777-444-555-9-9-9-9-9-9-9--|
--3333333--------------------------------------------------------------------------|


(3:20)
---------------------------------------------|
---------------------------------------------|
---------------------------------------------|
---------------------------------------------|
-------5-----------5----------5----------5---|
-7-757---757---757---757--757---757--757-----|

-----------------------------------------------|
-----------------------------------------------|
-----------------------------------------------|
-----------------------------------------------|
-------5-----------5----------5----------5-----|
-7-757---757---757---757--757---757--757---75--|

-----------------------------------------------|
-----------------------------------------------|
-----------------------------------------------|
-----------------------------------------------|
-------2----------2--------5-5/7\5---7-7/9-7---|
-3-323---323--323---32--55---------6-----------|

----------------------------------------------------------7----|
---------------------------7-7-------------------------10------|
-------------------------------9-7-9-7-6-7---7-6-----9---------|
-------------------------------------------------7-9-----------|
-------5-----------5-------------------------------------------|
-7-757---757---757---757---------------------------------------|

--------------------------------------------------|
--------------------------------------------------|
--------------------------------------------------|
-----------------------4-4-----------7-7-5-4-5-4--|
-------5-----------5-------7-5-7-5-7--------------|
-7-757---757---757---7----------------------------|


(4:15)
---------------------------------------------------|
---------------------------------------------------|
---------------------------------------------------|
--5555-5555-5555-5555--9999-9999-9999-9999---(2x)--|
--5555-5555-5555-5555--9999-9999-9999-9999---------|
--3333-3333-3333-3333--7777-7777-7777-7777---------|

(4:26)
----------------------------------------------------------------------|
----------------------------------------------------------------------|
--7777-7777-11111111111111111111111--14-14-14-14-14-14-14-14-14-14-14-|
--xxxx-xxxx-x-x-x-x-x-x-x-x-x-x-x-x--x--x--x--x--x--x--x--x--x--x--x--|
--5555-5555-9-9-9-9-9-9-9-9-9-9-9-9--12-12-12-12-12-12-12-12-12-12-12-|
----------------------------------------------------------------------|

(4:37)
----------------------------------------------|
----------------------------------------------|
--7777-6666-6/7-6/7--7777-9999-9/11-9\5-------|
--xxxx-xxxx-xxx-xxx--xxxx-xxxx-xxx--xxx--(3x)-|
--5555-4444-4/5-4/5--5555-7777-7/9--7\5-------|
----------------------------------------------|

---------------------------------------------|
---------------------------------------------|
--7777-6666-6/7-6/7--9999-11111111-9/11-9\5--|
--xxxx-xxxx-xxx-xxx--xxxx-x-x-x-x--xxx--xxx--|
--5555-4444-4/5-4/5--7777-9-9-9-9--7/9--7\5--|
---------------------------------------------|

(5:01)
-----------------------------|
-----------------------------|
--------7\666--6666-6/111111-|
--------xxxxx--xxxx-xxx-x-x--|
--5555--5\444--4444-4/9-9-9--|
--3333-----------------------|


One last drink
One more before I go
It's a little late and I'm going home alone

I can still remember
Those words you said to me
Things would be much better if you're with me
I was so naive to think
That I could change your ways
What I'd do for a pretty face

Now I'm a little wiser
Now I'm less naive
I won't let myself be used by you
'cause I was so convinced
And I was so consumed
Lesson learned

Please don't apologize
It's too late to take it back
I knew that this is how you'd react
Your beautiful eyes don't work no more
Not your lips, not your tongue, not your mouth

I can still remember
Those words you said to me
Should have listened to my friends
I was so naive to think
That I could change your ways
What I'd do for a pretty face

Don't fool me with those oh,
So pretty gestures that you make
Don't even try
I can see right through you
I can see right through you

The wound
The wound was so deep
And I never thought it would hurt this much
I was so sure
I was so wrong





Thank You and more power to OPM bands !
comments
We did not receive enough feedback on this tab! Please rate:
print report bad tab
1 2 3 4 5
I want to post or [tab]
guest
You may want to rate the tab now too:
select rating
Please do not post tabs as comments. Select "correction" instead!