Oops, an error
Loading. Please wait.

Scars Of A Failing Heart tab

version 2
version 2

Whole song

7,656 views 1 this week
4 commentsread comments
1 2 3 4 5
x 6
add to favorites
×
Save as Personal and add changes to this tab that will be seen only by you. Learn more ›
×
You can save this tab as Personal to edit and correct it or add notes. All changes will be seen only by you. Learn more »
launch autoscroll
font size
0
reset
how to read this tab
guitar tuner
edit
Autoscroll
slow
fast
+/-
esc
set tempo
stop
Author
Scars of a Failing Heart
Typecast
Date: Dec. 12, 2005
Tabbed By: AJ SARMIENTO

bale 99% sure lang aq sa tab na 2..pero it sounds right. try nyo nlang at pakinggan nyo
nlang ung kanta mismo.

INTRO:

e|----------------------------------------------------------|
B|-------------------------------------------------------P--|
G|--7--7/9--9/11--4--4/5--5/7-----7--7/9--9/11---4--4/5--A--|
D|--x--x/x--x/x---x--x/x--x/x-----x--x/x--x/x----x--x/x--U--|
A|--5--5/7--7/9---2--2/3--3/5-----5--5/7--7/9----2--2/3--S--|
E|-------------------------------------------------------E--|

VERSE:

"broken hopes falling away..."
e|-------------------|
B|-------------------|
G|---7---7---4-------|
D|---7---7---4---5---|
A|---5--/4---2---5---|
E|---------------3---|
2x toh..
hanggang sa line..."now I'm close to dying..."


PRE-CHORUS


"everything's failing with thoughts of you..."
e|-------------------|
B|-------------------|
G|---4---2-----------|
D|---4---2---5---5---|
A|---2---0---5---5---|
E|-----------3---3---|
4x toh..
hanggang sa line..."would you try to hear me out?..."


CHORUS


"the mood of distraction's prevailing tonight..."
e|-------------------|
B|-------------------|
G|---7---7---4-------|
D|---7---7---4---5---|
A|---5--/4---2---5---|
E|---------------3---|
4x din toh...
hanggang sa line..."and you're gone and I'm on my own..."
NOTE:
(parang sa verse ung chords ng chorus, 
 pero listen to the song for the timing...iba
 ung timing ng verse and chorus)

*REPEAT INTRO*


VERSE II


"broken glass cut me to sleep..."
e|-------------------|
B|-------------------|
G|---7---7---4-------|
D|---7---7---4---5---|
A|---5--/4---2---5---|
E|---------------3---|
2x naman toh...
hanggang sa line..."you just got me all wrong..."

*REAPEAT PRE-CHORUS AND CHORUS*

...then...

OUTRO:

e|--------------------------------------------------------|
B|--------------------------------------------------------|
G|--7--7/9--9/11--4--4/5--5/7-----7--7/9--9/11---4--4/5---|
D|--x--x/x--x/x---x--x/x--x/x-----x--x/x--x/x----x--x/x---|
A|--5--5/7--7/9---2--2/3--3/5-----5--5/7--7/9----2--2/3---|
E|--------------------------------------------------------|...
NOTE: sabay sa last part ng outro ito...

e|-------------------------------------|
B|-------------------------------------|
G|---5----------------------------7~---|
D|---x--4-5-5/7-5-4-0-4-5-5/7-5-4-7~---|
A|---3----------------------------5~---|
E|-------------------------------------|

un lang

mey guitar 2 pa ata toh eh...



comments/suggestions...

-->sarmiento3006@yahoo.com
add sa friendster.
Suggest correction
Creating personal tab
Creating personal tab
You can edit any tab online and save it as your Personal.

You can edit, replace or remove any tab part or add personal notes – all changes will be seen only by you.

Personal tabs can be accessed anytime from any device, even offline.
Learn more »
comments
print report bad tab
4 comments total. Showing first comments.
0 reply
alex_oro23 10 Mar 02, 2007 02:24 PM

tol,,,may mali sa intro mo.... pero un ibang verse tama,,, 3 star

0 reply
alex_oro23 10 Mar 26, 2007 01:02 AM

tol...sa tingin ko dalawa nag-gigitara sa intro... un isa stram,,

0 reply
nirvana_14 52 Aug 02, 2007 05:29 PM

aus na to

guest
You may want to rate the tab now too:
select rating
Wanna post a correction for this tab? Suggest correction