Oops, an error
Loading. Please wait.

She Wont Understand tab

version 4
version 4

Whole song

2,729 views 3 this week
no commentswrite comment
1 2 3 4 5
x 8
add to favorites
×
Save as Personal and add changes to this tab that will be seen only by you. Learn more ›
×
You can save this tab as Personal to edit and correct it or add notes. All changes will be seen only by you. Learn more »
launch autoscroll
font size
0
reset
how to read this tab
guitar tuner
edit
Autoscroll
slow
fast
+/-
esc
set tempo
stop
Author
Song: She wont understand
Artist: Typecast
Album: The Infatuation is Always There
Tabbed by: Paul Anthonie Antoc
E-mail: paul_antoc@yahoo.com
Address: Mariveles,Bataan,Philippines
contact #: 09184423602

Elow po sa mga friends ko sila Calvin,Jon,Otep,Emak,Aerol,Tuts.. at iba 
pa.. sa mga clasm8s ko sa MNHS(annex) IV-A.. mabuhay kayong lahat.. hehe
Binabati ko rin si Maria Lourdes Vejar, HEHE.. wala lang.. HEHEHE!!



Standard Tuning

Intro:
e|---------------------------------------------------------------|
B|-----5-----5-----5---------------------------------------------|
G|------5-----5-----5----5--5----5----------5-----5----5------5--|
D|----5--5--5--5--5--5--5--5--5-5---5--5--5--5--5----5---5--5----|
A|---3-----3-----3-----3--2----2--2--2---0----0----0------0------|
E|---------------------------------------------------------------|
(continuation)
e|--------------3--------------|
B|------5---6-----65-----------|
G|----5---5-------55-----------|
D|---5---------5---------------|
A|-----------------------------|
E|-3---------------------------|


Verse:
e|---------------------------------------------|
B|---------------------------------------------|
G|-55555555-55555555---------------------------|
D|-55555555-55555555-33333333-555555555--------| 2x
A|-33333333-22222222-33333333-555555555--------|
E|-------------------11111111-333333333--------|


(Continuation)
e|------------------------------------------------|
B|------------------------------------------------|
G|------------------------------------------------|
D|-33333333---------------------555555555---------|
A|-33333333---------------------555555555---------|
E|-11111111---------------------333333333---------|
  I'll write all the things...   You are today....

   
e|------------------------------------------------|
B|------------------------------------------------|
G|------5-------5-----5---------------------------| (fast switching)
D|----5---5---5---5--5--5---5--33333--------------| Get the timing..
A|--3-------2------0-------5-5-33333--------------|
E|-----------------------3----1-1111--------------|
  And it wont be easy coz it will....


Pre-Chorus:(palm muted & alternate picking)
e|-----------------------------------------------------------|
B|-----------------------------------------------------------|
G|-------------55555-------------------------5------5--------|
D|-77777-55555-55555-555-333-77777-55555---5---5--5---5------|
A|-77777-55555-33333-555-333-77777-55555-3-------3------3----|
E|-55555-33333-------333-111-55555-33333---------------------|
  Im sorry....                           but it hurts falling.... 


Chorus:
e|--------------------------------------|
B|--------------------------------------|
G|-5555555-555555-----------------------|
D|-5555555-555555-777777-333333---------| 2x
A|-3333333-222222-777777-333333---------|
E|----------------555555-111111---------|
  She wont understand....


Repeat Verse:
Repeat Chorus 2x

Outro:(palm muted & alternate picking)
e|---------------------------------------------------|
B|---------------------------------------------------|
G|-------------55555-------------------55555---------|
D|-77777-55555-55555-33333-77777-55555-55555---------|
A|-77777-55555-33333-33333-77777-55555-33333---------|
E|-55555-33333-------11111-55555-33333---------------|
 

Last Chord:

e|-------|
B|-------|
G|-------|
D|---3~--|
A|---3~--|
E|---1~--|

End


She Won't Understand Lyrics:
 
Verse:
Am I boring you out?
Am I disturbing your pace?
Did I break anything on you
That would drip down your sail?
Did I trouble your life?
Did I make you aware?
You've said you know it all
And I do hope you are right

I'll write all the things you are today
And it won't be easy cause it will bother your way

Pre-Chorus:
I'm sorry for caring for you
I'm sorry
And it hurts falling for you

Chorus:
She won't understand
She puts her mind on what she knows
She won't know anything
She won't know everything

Verse:
You are breaking me out
You don't have a chance too see
Your words tear a thousand pieces
And it falls all over me
Can we make up for it?
You wont make up for me
You go on your way
And listen to things that you want to here

I'll write all the things you are today
But it won't be easy cause it will bother your way

Repeat Chorus 2x
Repeat Pre-Chorus
Suggest correction
Creating personal tab
Creating personal tab
You can edit any tab online and save it as your Personal.

You can edit, replace or remove any tab part or add personal notes – all changes will be seen only by you.

Personal tabs can be accessed anytime from any device, even offline.
Learn more »
comments
print report bad tab
guest
You may want to rate the tab now too:
select rating
Wanna post a correction for this tab? Suggest correction