Oops, an error
Loading. Please wait.

When The Sky Starts Falling tab

version 2
version 2

Whole song

499 views 3 this week
no commentswrite comment
1 2 3 4 5
3 more votes to show rating
add to favorites
×
Save as Personal and add changes to this tab that will be seen only by you. Learn more ›
×
You can save this tab as Personal to edit and correct it or add notes. All changes will be seen only by you. Learn more »
launch autoscroll
font size
0
reset
how to read this tab
guitar tuner
edit
Autoscroll
slow
fast
+/-
esc
set tempo
stop
Author
--------------------------------------------------------------------------------
                     When The Sky Starts Falling ~ Typecast
--------------------------------------------------------------------------------
Tabbed by: Teddy Magaoay
Email: mar_ted@yahoo.com

Tuning: Standard
(note: listen to song to find out how to play its exact strumming)

==============================================================================
INTRO

e|-0-0-0-0-0-0-0--3-3-3-3-3-3-3-3--4-4-4-4-4-4-4-4--0-0-0-0-0-0-0-0----------|
B|-0-0-0-0-0-0-0--4-4-4-4-4-4-4-4--5-5-5-5-5-5-5-5--0-0-0-0-0-0-0-0----------|
G|-1-1-1-1-1-1-1--5-5-5-5-5-5-5-5--6-6-6-6-6-6-6-6--2-2-2-2-2-2-2-2----------|
D|-2-2-2-2-2-2-2--5-5-5-5-5-5-5-5--6-6-6-6-6-6-6-6--2-2-2-2-2-2-2-2----------|
A|-2-2-2-2-2-2-2--3-3-3-3-3-3-3-3--4-4-4-4-4-4-4-4--0-0-0-0-0-0-0-0----------|
E|-0-0-0-0-0-0-0-------------------------------------------------------------|

e|-0-0-0-0-0-0-0--3-3-3-3-3-3-3-3--4-4-4-4-4-4-4-4--0-0-0-0-0-0-0-0----------|
B|-0-0-0-0-0-0-0--4-4-4-4-4-4-4-4--5-5-5-5-5-5-5-5--0-0-0-0-0-0-0-0----------|
G|-1-1-1-1-1-1-1--5-5-5-5-5-5-5-5--6-6-6-6-6-6-6-6--2-2-2-2-2-2-2-2----------|
D|-2-2-2-2-2-2-2--5-5-5-5-5-5-5-5--6-6-6-6-6-6-6-6--2-2-2-2-2-2-2-2----------|
A|-2-2-2-2-2-2-2--3-3-3-3-3-3-3-3--4-4-4-4-4-4-4-4--0-0-0-0-0-0-0-0----------|
E|-0-0-0-0-0-0-0-------------------------------------------------------------|

==============================================================================
VERSE (00:20)

     the sun...   setting      sit...        me...       okay...
e|-------------0--------0------------0------------0------------2p0-----------|
B|---------5--------5-------5----5-------5----5-------5----5-------5---------|
G|---1-------4--------4---4--------4---4--------4---4--------4---------------|
D|-----2---------------------------------------------------------------------|
A|----------------4------------2------------0------------4-------------------|
E|-0-----0-------------------------------------------------------------------|

   be     afraid.             the sky...    falling...   give...
e|-------0----------2p0------------------0--------0------------0-------------|
B|---5----------5-------5------------5--------5-------5----5-------5---------|
G|-----4---4------4----------2-1-1-----4--------4---4--------4---4-----------|
D|---------------------------2-2-2-------------------------------------------|
A|-0----------4-----------------------------4------------2-------------------|
E|-------------------------0-------0-----------------------------------------|

   word...      promise...    won't...     a...
e|-------0------------2p0-----------0------------2p0-------------------------|
B|---5-------5----5-------5-----5-------5----5-------5-----------------------|
G|-----4---4--------4-------------4---4--------4-----------------------------|
D|---------------------------------------------------------------------------|
A|-0------------4-------------0------------4---------------------------------|
E|---------------------------------------------------------------------------|

============================================================================== 
REFRAIN (00:39)

   lone.      we         both...     soon...              everything...
e|---------------------------------------------------------------------------|
B|-5-5-5-5-5--5-5-5-5-5--5-5-5-5-5--5-5-5-5-5--5-5-5-5-5--5-5-5-5-5----------|
G|-4-4-4-4-4--4-4-4-4-4--4-4-4-4-4--4-4-4-4-4--4-4-4-4-4--4-4-4-4-4----------|
D|-2-2-2-2-2--2-2-2-2-2--2-2-2-2-2--2-2-2-2-2--2-2-2-2-2--2-2-2-2-2----------|
A|-0-0-0-0-0--2-2-2-2-2--4-4-4-4-4--2-2-2-2-2--0-0-0-0-0--2-2-2-2-2----------|
E|---------------------------------------------------------------------------|

   everyone...                      no...      trying...  it's...     late.   
e|---------------------------------------------------------------------------|
B|-5-5-5-5-5--5-5-5-5-5--5-5-5-5-5--5-5-5-5-5--5-5-5-5-5--5-5-5-5-5--5-------|
G|-4-4-4-4-4--4-4-4-4-4--4-4-4-4-4--4-4-4-4-4--4-4-4-4-4--4-4-4-4-4--4-------|
D|-2-2-2-2-2--2-2-2-2-2--2-2-2-2-2--2-2-2-2-2--2-2-2-2-2--2-2-2-2-2--2-------|
A|-4-4-4-4-4--4-4-4-4-4--0-0-0-0-0--2-2-2-2-2--4-4-4-4-4--2-2-2-2-2--0-------|
E|---------------------------------------------------------------------------|

   pray...                let...                 hold....
e|---------------------------------------------------------------------------|
B|---------------------------------------------------------------------------|
G|-------2-----------2----------4-----------4----------6-----------6---------|
D|---2-------2---2-----2----4-------4---4-----4----7-------7---7-------7-----|
A|---------------------------------------------------------------------------|
E|-2---2---2---2---2------4---4---4---4---4------5---5---5---5---5---5-------|

   don't...
e|-------------0-------------------------------------------------------------|
B|-------0-----0-------------------------------------------------------------|
G|---2-------2-2-------------------------------------------------------------|
D|-----2---2---2-------------------------------------------------------------|
A|-0-----------0-------------------------------------------------------------|
E|---------------------------------------------------------------------------|

==============================================================================
INTERLUDE (01:10)

e|----------------------------0------------0-------------------------0-------|
B|------------------------5-------5----5-------5----5---5---5----5-------5---|
G|-------4---------4--------4---4--------4---4--------4---4--------4---4-----|
D|---2-----2---2-----2-------------------------------------------------------|
A|----------------------4------------2------------0------------4-------------|
E|-0---0-----0---0-----------------------------------------------------------|

e|-------0------------0------------------------------------0------------0----|
B|---5-------5----5-------5---------------------4-4----5-------5----5-------5|
G|-----4---4--------4---4------2-1-1-2-2----4------------4---4--------4---4--|
D|-----------------------------2-2-2-2-2-------------------------------------|
A|-0------------4-------------------------4---4------2------------0----------|
E|---------------------------0-----------------------------------------------|

e|-------2p0----------0------------0-----------------------------------------|
B|---5-------5----5-------5----5-------5-------------------------------------|
G|-----4------------4---4--------4---4---------------------------------------|
D|---------------------------------------------------------------------------|
A|-4------------0------------4-----------------------------------------------|
E|---------------------------------------------------------------------------|

============================================================================== 
REFRAIN (01:29)

              we         both...     soon...              everything...
e|---------------------------------------------------------------------------|
B|-5-5-5-5-5--5-5-5-5-5--5-5-5-5-5--5-5-5-5-5--5-5-5-5-5--5-5-5-5-5----------|
G|-4-4-4-4-4--4-4-4-4-4--4-4-4-4-4--4-4-4-4-4--4-4-4-4-4--4-4-4-4-4----------|
D|-2-2-2-2-2--2-2-2-2-2--2-2-2-2-2--2-2-2-2-2--2-2-2-2-2--2-2-2-2-2----------|
A|-0-0-0-0-0--2-2-2-2-2--4-4-4-4-4--2-2-2-2-2--0-0-0-0-0--2-2-2-2-2----------|
E|---------------------------------------------------------------------------|

   everyone...                      no...      trying...  it's...     late.   
e|---------------------------------------------------------------------------|
B|-5-5-5-5-5--5-5-5-5-5--5-5-5-5-5--5-5-5-5-5--5-5-5-5-5--5-5-5-5-5--5-------|
G|-4-4-4-4-4--4-4-4-4-4--4-4-4-4-4--4-4-4-4-4--4-4-4-4-4--4-4-4-4-4--4-------|
D|-2-2-2-2-2--2-2-2-2-2--2-2-2-2-2--2-2-2-2-2--2-2-2-2-2--2-2-2-2-2--2-------|
A|-4-4-4-4-4--4-4-4-4-4--0-0-0-0-0--2-2-2-2-2--4-4-4-4-4--2-2-2-2-2--0-------|
E|---------------------------------------------------------------------------|

   pray...                let...                 hold....
e|---------------------------------------------------------------------------|
B|---------------------------------------------------------------------------|
G|-------2-----------2----------4-----------4----------6-----------6---------|
D|---2-------2---2-----2----4-------4---4-----4----7-------7---7-------7-----|
A|---------------------------------------------------------------------------|
E|-2---2---2---2---2------4---4---4---4---4------5---5---5---5---5---5-------|

   don't...
e|-------------0-------------------------------------------------------------|
B|-------0-----0-------------------------------------------------------------|
G|---2-------2-2-------------------------------------------------------------|
D|-----2---2---2-------------------------------------------------------------|
A|-0-----------0-------------------------------------------------------------|
E|---------------------------------------------------------------------------| 
GUITAR II

   pray...      let...      hold....       don't...
e|-7-----7------7----7------11-----11------12-----12-----12------------------|
B|---7-----7------9----9-------9------9-------9------9-----------------------|
G|-----9-----9------9----9-------9------9-------9------9---------------------|
D|---------------------------------------------------------------------------|
A|---------------------------------------------------------------------------|
E|---------------------------------------------------------------------------|

==============================================================================
CHORUS (02:00)

   burn...          burn...          ground...        scream...
e|---------------------------------------------------------------------------|
B|---------------------------------------------------------------------------|
G|------------------5-5-5-5-5-5-5-5--6-6-6-6-6-6-6-6-------------------------|
D|-2-2-2-2-2-2-2-2--6-6-6-6-6-6-6-6--6-6-6-6-6-6-6-6--7-7-7-7-7-7-7-7--------|
A|-2-2-2-2-2-2-2-2--3-3-3-3-3-3-3-3--4-4-4-4-4-4-4-4--7-7-7-7-7-7-7-7--------|
E|-0-0-0-0-0-0-0-0------------------------------------5-5-5-5-5-5-5-5--------|

   drown...         water...         lungs...         faithful.
e|---------------------------------------------------------------------------|
B|---------------------------------------------------------------------------|
G|------------------5-5-5-5-5-5-5-5--6-6-6-6-6-6-6-6-------------------------|
D|-2-2-2-2-2-2-2-2--6-6-6-6-6-6-6-6--6-6-6-6-6-6-6-6--7-7-7-7-7-7-7-7--------|
A|-2-2-2-2-2-2-2-2--3-3-3-3-3-3-3-3--4-4-4-4-4-4-4-4--7-7-7-7-7-7-7-7--------|
E|-0-0-0-0-0-0-0-0------------------------------------5-5-5-5-5-5-5-5--------|

   this...          nothing...       happening...     vive...
e|---------------------------------------------------------------------------|
B|---------------------------------------------------------------------------|
G|-6-6-6-6-6-6-6-6-------------------6-6-6-6-6-6-6-6-------------------------|
D|-6-6-6-6-6-6-6-6--7-7-7-7-7-7-7-7--6-6-6-6-6-6-6-6--7-7-7-7-4-4-4-4--------|
A|-4-4-4-4-4-4-4-4--7-7-7-7-7-7-7-7--4-4-4-4-4-4-4-4--7-7-7-7-4-4-4-4--------|
E|------------------5-5-5-5-5-5-5-5-------------------5-5-5-5-2-2-2-2--------|

   we...            hide...          life...          you... 
e|---------------------------------------------------------------------------|
B|---------------------------------------------------------------------------|
G|-6-6-6-6-6-6-6-6-------------------6-6-6-6-6-6-6-6-------------------------|
D|-6-6-6-6-6-6-6-6--7-7-7-7-7-7-7-7--6-6-6-6-6-6-6-6--7-7-7-7-7-7-7-7--------|
A|-4-4-4-4-4-4-4-4--7-7-7-7-7-7-7-7--4-4-4-4-4-4-4-4--7-7-7-7-7-7-7-7--------|
E|------------------5-5-5-5-5-5-5-5-------------------5-5-5-5-5-5-5-5--------|

   burn...        burn...          ground...        scream... 
e|-0-0-0-0-0-0-0--3-3-3-3-3-3-3-3--4-4-4-4-4-4-4-4--0-0-0-0-0-0-0-0----------|
B|-0-0-0-0-0-0-0--4-4-4-4-4-4-4-4--5-5-5-5-5-5-5-5--0-0-0-0-0-0-0-0----------|
G|-1-1-1-1-1-1-1--5-5-5-5-5-5-5-5--6-6-6-6-6-6-6-6--2-2-2-2-2-2-2-2----------|
D|-2-2-2-2-2-2-2--5-5-5-5-5-5-5-5--6-6-6-6-6-6-6-6--2-2-2-2-2-2-2-2----------|
A|-2-2-2-2-2-2-2--3-3-3-3-3-3-3-3--4-4-4-4-4-4-4-4--0-0-0-0-0-0-0-0----------|
E|-0-0-0-0-0-0-0-------------------------------------------------------------|
 
   loud...        water...         lungs...         faithful. 
e|-0-0-0-0-0-0-0--3-3-3-3-3-3-3-3--4-4-4-4-4-4-4-4--0------------------------|
B|-0-0-0-0-0-0-0--4-4-4-4-4-4-4-4--5-5-5-5-5-5-5-5--0------------------------|
G|-1-1-1-1-1-1-1--5-5-5-5-5-5-5-5--6-6-6-6-6-6-6-6--2------------------------|
D|-2-2-2-2-2-2-2--5-5-5-5-5-5-5-5--6-6-6-6-6-6-6-6--2------------------------|
A|-2-2-2-2-2-2-2--3-3-3-3-3-3-3-3--4-4-4-4-4-4-4-4--0------------------------|
E|-0-0-0-0-0-0-0-------------------------------------------------------------|

 ====================================
| p   pull-off
 ====================================

            
            
Suggest correction
Creating personal tab
Creating personal tab
You can edit any tab online and save it as your Personal.

You can edit, replace or remove any tab part or add personal notes – all changes will be seen only by you.

Personal tabs can be accessed anytime from any device, even offline.
Learn more »
Give kudos to tab author, rate the tab!
1 2 3 4 5
comments
print report bad tab
guest
You may want to rate the tab now too:
select rating
Wanna post a correction for this tab? Suggest correction