Oops, an error
Loading. Please wait.

Will You Ever Learn chords

version 2
version 2

Whole song

Interactive

10,595 views 9 this week
1 commentread comment
1 2 3 4 5
2 more votes to show rating
add to favorites
×
Save as Personal and add changes to this tab that will be seen only by you. Learn more ›
×
You can save this tab as Personal to edit and correct it or add notes. All changes will be seen only by you. Learn more »
launch autoscroll
font size
0
reset
transpose
0
reset
simplify chords
display chords
guitar tuner
edit
Autoscroll
slow
fast
+/-
esc
set tempo
stop
Author
Difficulty
Strumming
There is no strumming pattern for this song yet. and get +5 IQ
title:will you ever learn
band/artist:typecast
tabbed by:francis caballero of bulacan


tuning:dropped d
chords:D7-A-G/B
xenxa n dq mxado lm kung nu twag s chords weh
pkinggan nu mbuti ung song.... lgi nu ssma ung e pg mag sstrum kau s 1st stanza lng ha...kya 2 

e|---0------------------|    
B|---3------------------|
G|---2------------------| d7?
D|----------------------|
A|----------------------|
D|----------------------|

e|---0------------------|
B|---2------------------| a
G|---2------------------|
D|---2------------------|
A|----------------------|
D|----------------------|

e|---0------------------|
B|---3------------------|
G|---2------------------| b7?
D|----------------------|
A|---2------------------|
D|----------------------|

e|---------------------|    
B|---------------------|
G|---------------------| d
D|---0-----------------|
A|---0-----------------|
D|---0-----------------|


e|---------------------|    
B|---------------------|
G|---------------------| A
D|---7-----------------|
A|---7-----------------|
D|---7-----------------|

e|---------------------|    
B|---------------------|
G|---------------------| b
D|---9-----------------|
A|---9-----------------|
D|---9-----------------|


e|---------------------|    
B|---------------------|
G|---------------------|g   
D|---5-----------------|
A|---5-----------------|
D|---5-----------------|

e|---------------------|    
B|---------------------|
G|---------------------| g#m
D|---7-----------------|
A|---5-----------------|
D|---5-----------------|

e|---------------------|    
B|---------------------|
G|---------------------| f#m
D|---7-----------------|
A|---4-----------------|
D|---4-----------------|



D7
So what’s the point in all of this?
When you will never change
A
The days have past
The weather’s changed
D7
Should I be sorry? 
G
Could I be sorry?


D
I did it all for you
Hoping you would see
A
Your eyes are dull, your hands are clenched
         B           G 
Are we ready?Are we ready

F#m                         G#m   
But you.... you think about yourself
          F#m
Only but yourself
          G
But what about…
    D                        A
Un-lonely nights, romantic moments
     B
The love
   G
What about them
 D        A  B-G
Throw it all away


(do the chord pattern:D-A-B-g)
You know me well
You know it’s wrong
Then what is it you feel?
You hide behind those perfect smiles
It won’t fool me because you already did

(do the chord pattern:f#m-g#m-f#m-g)
But you think about yourself
Only but yourself
But what about…

(do the chord pattern:d-A-b-g4x)
Un-lonely nights, romantic moments
The love
What about them
Throw it all away
The perfect dates, the sweetest kisses
What about them
Throw it all away


comment nu 2 pagnagus2han nu ggwin q pti ung adlib tnx
yoko ng emo kya lng e2 lng ang mdling seprahin eh hahaha 

            
            
Suggest correction
Creating personal tab
Creating personal tab
You can edit any tab online and save it as your Personal.

You can edit, replace or remove any tab part or add personal notes – all changes will be seen only by you.

Personal tabs can be accessed anytime from any device, even offline.
Learn more »
Give kudos to tab author, rate the tab!
1 2 3 4 5
comments
print report bad tab
1 comment total.
0 reply
francis666 102 Jan 23, 2007 02:06 AM

ung sa una mali pla ska dun s panapos dapat dun D Am B G sorry!!

guest
You may want to rate the tab now too:
select rating
Wanna post a correction for this tab? Suggest correction