Oops, an error
Loading. Please wait.

Will You Ever Learn tab

version 2
version 2

Whole song

Interactive

2,629 views 9 this week
4 commentsread comments
1 2 3 4 5
1 last vote to show rating
add to favorites
×
Save as Personal and add changes to this tab that will be seen only by you. Learn more ›
×
You can save this tab as Personal to edit and correct it or add notes. All changes will be seen only by you. Learn more »
launch autoscroll
font size
0
reset
how to read this tab
guitar tuner
edit
Autoscroll
slow
fast
+/-
esc
set tempo
stop
typecast - will you ever learn

album: every moss and cobweb

So what's the point in all of this, When you will never change 
The days have pass, The weather's changed, should I be sorry, could I be sorry


e|--2--x--x-----|
b|--3--3--3-----|
g|--2--2--2--7--|
d|--0--2--0--5--|
a|--0--0--2--5--|
d|--x--x--x--5--|



i did it all, all for you, hoping you would see, your eyes are dull
your hands are clenched, are we ready, are we ready..


e|--3--x--x-----|
b|--2--3--3-----|
g|--3--2--2--7--|
d|--0--2--0--5--|
a|--0--0--2--5--|
d|--x--x--x--5--|


but you, you think about yourself, 


e|----------------------------------------------------------------------------|      
b|------2----------2-------2----------2---------------------------------------|  
g|---2-----2-2-2----2---2-----2-2-2----2------7---------7-------7---------7---|
d|--0-0-----0-0-0------0-0-----0-0-0-------7----7-7-7----7---7----7-7-7----7--|  
a|----------------------------------------5-5----5-5-5------5-5----5-5-5------| 
d|----------------------------------------------------------------------------|       


only but yourself, but what about..


e|--------------------------------------------------------------------------------------|      
b|------2----------2-------2----------2-------------------------------------------------|  
g|---2-----2-2-2----2---2-----2-2-2----2------7---------7-------7---------7-------------|
d|--0-0-----0-0-0------0-0-----0-0-0-------7----7-7-7----7---7----7-7-7----7--55555555--|  
a|----------------------------------------5-5----5-5-5------5-5----5-5-5------55555555--| 
d|----------------------------------------------------------------------------55555555--|     


chorus:


uh-lonely nights, romantic moments, the love, the love, what about them
throw it all away..


e|--3--x--x-----|
b|--2--3--3-----|
g|--3--2--2--7--|
d|--0--2--0--5--|
a|--0--0--2--5--|
d|--x--x--x--5--|


after the chorus:


Guitar 1:

e|----------|
b|----------|
g|----------|
d|--0~--0~--|
a|--0~--0~--|
d|--0~--0~--|


Guitar 2:

e|-------------------------------------------|
b|-------------------------------------------|
g|--7-9--7p6-7p6-----------7-9--7p6-7p6h7h9--|
d|----------------7h9------------------------|
a|--------------------7h9--------------------|
d|-------------------------------------------|


you know me well, you know it's wrong, then what it is you feel, you hide behind
those perfect smiles, it won't fool me, cause you already did..
i did it all, all for you, hoping you would see, your eyes are dull
your hands are clenched, are we ready, are we ready..


e|--3--x--x-----|
b|--2--3--3-----|
g|--3--2--2--7--|
d|--0--2--0--5--|
a|--0--0--2--5--|
d|--x--x--x--5--|


but you, you think about yourself, 


e|----------------------------------------------------------------------------|      
b|------2----------2-------2----------2---------------------------------------|  
g|---2-----2-2-2----2---2-----2-2-2----2------7---------7-------7---------7---|
d|--0-0-----0-0-0------0-0-----0-0-0-------7----7-7-7----7---7----7-7-7----7--|  
a|----------------------------------------5-5----5-5-5------5-5----5-5-5------| 
d|----------------------------------------------------------------------------|     


only but yourself, but what about..


e|---------------------------------------------------------------------------------------------|      
b|------2----------2-------2----------2--------------------------------------------------------|  
g|---2-----2-2-2----2---2-----2-2-2----2------7---------7-------7---------7-------------11/12--|
d|--0-0-----0-0-0------0-0-----0-0-0-------7----7-7-7----7---7----7-7-7----7--55555555--x-/x---|  
a|----------------------------------------5-5----5-5-5------5-5----5-5-5------55555555--9-/10--| 
d|----------------------------------------------------------------------------55555555---------|     


chorus:


uh-lonely nights, romantic moments, the love, the love, what about them
throw it all away..
the perfect dates, the sweetest kisses, the love, the love, what about them
throw it all away..
   

e|--3--x--x-----|
b|--2--3--3-----|
g|--3--2--2--7--|
d|--0--2--0--5--|
a|--0--0--2--5--|
d|--x--x--x--5--|


after the chorus:


e|----------------------------------------------------|---------------|
b|----------------------------------------------------|---------------|
g|-----------------------7b---------------------------|---------------|
d|---------------4h5-5h7------------------------------|--5-4-2-4-5-2--|
a|--5p4-2h4-4h5--------------5p4-2h4-4h5--------------|--5-4-2-4-5-2--|
d|----------------------------------------5p4-2h4-2b--|--5-4-2-4-5-2--|
                                                    


So what's the point in all of this, When you will never change 
The days have pass, The weather's changed, should I be sorry, could I be sorry


e|--2--x--x-----|
b|--3--3--3-----|
g|--2--2--2--7--|
d|--0--2--0--5--|
a|--0--0--2--5--|
d|--x--x--x--5--|

may iba lang akong binago. eto na po ung tama.  ^_^

            
            
Suggest correction
Creating personal tab
Creating personal tab
You can edit any tab online and save it as your Personal.

You can edit, replace or remove any tab part or add personal notes – all changes will be seen only by you.

Personal tabs can be accessed anytime from any device, even offline.
Learn more »
Give kudos to tab author, rate the tab!
1 2 3 4 5
comments
print report bad tab
4 comments total. Showing first comments.
0 reply
jepjep 10 Nov 15, 2006 03:07 AM

ano to nakaw??

0 reply
jepjep 10 Nov 15, 2006 03:07 AM

jowk

0 reply
me_and_myself 254 Nov 16, 2006 12:16 AM

lol. haha!

guest
You may want to rate the tab now too:
select rating
Wanna post a correction for this tab? Suggest correction