Oops, an error
Loading. Please wait.

Trondur I Gotu tab

by Tyr
52 views 3 this week
no commentswrite comment
1 2 3 4 5
3 more votes to show rating
add to favorites
×
Save as Personal and add changes to this tab that will be seen only by you. Learn more ›
×
You can save this tab as Personal to edit and correct it or add notes. All changes will be seen only by you. Learn more »
launch autoscroll
font size
0
reset
how to read this tab
guitar tuner
edit
Autoscroll
slow
fast
+/-
esc
set tempo
stop
[Intro 1]
Guitar 1:
e|--------------|---------------|-----------|
B|--------------|---------------|-----------|
G|--------------|---------------|-----------|
D|--------------|---------------|--------2--|
A|--------------|---------------|--------2--|
E|-5-0-0-0-0-0-0|0-0-0-0-0-0-0-0|0-0-0-0-0--|
B|--------------|---------------|-----------|

Guitar 2:
e|--------------|---------------|-----------|
B|--------------|---------------|-----------|
G|--------------|---------------|-----------|
D|--------------|---------------|--------2--|
A|-4------------|---------------|--------2--|
E|---0-0-0-0-0-0|0-0-0-0-0-0-0-0|0-0-0-0-0--|
B|--------------|---------------|-----------|

[Intro 2]
Guitar 1:
e|-----------------|--------|---------|-------|-----------------|-----------------|
B|-----------------|--------|---------|-------|-----------------|-----------------|
G|-----------------|--------|---------|-------|-----------------|-----------------|
D|-----------------|-2------|---------|-2-----|-----------------|-----------------|
A|---0-2-0---------|-2------|---------|-2-----|---0-2-0---------|-2/3-------------|
E|-3-------3-----5-|-0------|-5-3-0---|-0-----|-3-------3-----5-|-----0-0-0-0-0-0-|
B|-----------0-3---|--------|-------3-|-------|-----------0-3---|-----------------|

e|-----------------|-------------|---------|-------------|-----------------|
B|-----------------|-------------|---------|-------------|-----------------|
G|-----------------|-------------|---------|-------------|-----------------|
D|-----------------|-------------|---------|-------------|-----------------|
A|-2-4-5-4-2-0---4-|-------------|-4-2-0---|-------------|-2-4-5-4-2-0---4-|
E|-------------2---|-0-0-0-0-0-0-|-------2-|-0-0-0-0-0-0-|-------------2---|
B|-----------------|-------------|---------|-------------|-----------------|

Guitar 2:
e|-----------------|-----|---------|-----|-----------------|-------------------|
B|-----------------|-----|---------|-----|-----------------|-------------------|
G|-----------------|-----|---------|-----|-----------------|-------------------|
D|-----------------|-2---|---------|-2---|-----------------|-------------------|
A|-2-4-5-4-2-0---4-|-2---|-4-2-0---|-2---|-2-4-5-4-2-0---4-|-3/5h7-------------|
E|-------------2---|-0---|-------2-|-0---|-------------2---|-------0-0-0-0-0-0-|
B|-----------------|-----|---------|-----|-----------------|-------------------|

e|-----------------|-------------|---------|-----------------|
B|-----------------|-------------|---------|-----------------|
G|-----------------|-------------|---------|-----------------|
D|-5-7-9-7-5-----7~|-------------|-7-5-4---|-5-7-9-7-5-----7~|
A|-----------9-5---|-------------|-------5-|-----------9-5---|
E|-----------------|-0-0-0-0-0-0-|---------|-----------------|
B|-----------------|-------------|---------|-----------------|

[Verse]
Guitar 1:
e|------------------------|-----------------------|-----------------------|
B|------------------------|-----------------------|-----------------------|
G|------------------------|-----------------------|-----------------------|
D|------------------------|-----------------------|-----------------------|
A|------------------------|-----------------------|-----------------------|
E|-2-2-2-2-2-2-2-2-2-2-2-2|2-2-2-2-2-2------------|-----------------------|
B|------------------------|------------3-3-3-3-3-3|2-2-2-2-2-2-2-2-2-2-2-2|

e|-----------------------------------|-------------------------------|-------------------|
B|-----------------------------------|-------------------------------|-------------------|
G|-----------------------------------|-------------------------------|-------------------|
D|-----------------------------------|-------------------------------|-------------------|
A|-----------------------------------|-------------------------------|-------------------|
E|------------5-5-5-5-5-5-5-5-5-5-5-5|3-3-3-3-3-3-2-2-0-0-0-0-0-0-0-0|0-0-0-0------------|
B|0-0-0-0-0-0------------------------|-------------------------------|--------3-3-3-3-3-3|

Guitar 2:
e|------------------------|-----------------------|-----------------------|
B|------------------------|-----------------------|-----------------------|
G|------------------------|-----------------------|-----------------------|
D|------------------------|------------4-4-4-4-4-4|-----------------------|
A|-7-7-7-7-7-7-7-7-7-7-7-7|7-7-7-7-7-7------------|7-7-7-7-7-7-7-7-7-7-7-7|
E|------------------------|-----------------------|-----------------------|
B|------------------------|-----------------------|-----------------------|

e|-----------------------------------|---------------------------------|-------------------|
B|-----------------------------------|---------------------------------|-------------------|
G|-----------------------------------|---------------------------------|-------------------|
D|-----------------------------------|---------------------------------|--------4-4-4-4-4-4|
A|5-5-5-5-5-5-4-4-4-4-4-4-4-4-4-4-4-4|4-4-4-4-4-4-5-5-5/7-7-7-7-7-7-7-7|7-7-7-7------------|
E|-----------------------------------|---------------------------------|-------------------|
B|-----------------------------------|---------------------------------|-------------------|

[Inter-verse]
Guitar 1:
e|-----------------|-----------------|-------------|---------|-------------|-----------------|
B|-----------------|-----------------|-------------|---------|-------------|-----------------|
G|-----------------|-----------------|-------------|---------|-------------|-----------------|
D|-----------------|-----------------|-------------|---------|-------------|-----------------|
A|-2/3-------------|-2-4-5-4-2-0---4-|-------------|-4-2-0---|-------------|-2-4-5-4-2-0---4-|
E|-----0-0-0-0-0-0-|-------------2---|-0-0-0-0-0-0-|-------2-|-0-0-0-0-0-0-|-------------2---|
B|-----------------|-----------------|-------------|---------|-------------|-----------------|

Guitar 2:
e|-------------------|-----------------|-------------|---------|-------------|-----------------|
B|-------------------|-----------------|-------------|---------|-------------|-----------------|
G|-------------------|-----------------|-------------|---------|-------------|-----------------|
D|-------------------|-5-7-9-7-5-----7~|-------------|-7-5-4---|-------------|-5-7-9-7-5-----7~|
A|-3/5h7-------------|-----------9-5---|-------------|-------5-|-------------|-----------9-5---|
E|-------0-0-0-0-0-0-|-----------------|-0-0-0-0-0-0-|---------|-0-0-0-0-0-0-|-----------------|
B|-------------------|-----------------|-------------|---------|-------------|-----------------|

.....................................................................................
[Verse 2]
Guitar 1:
e|------------------------|-----------------------|-----------------------|
B|------------------------|-----------------------|-----------------------|
G|------------------------|-----------------------|-----------------------|
D|------------------------|-----------------------|-----------------------|
A|------------------------|-----------------------|-----------------------|
E|-2-2-2-2-2-2-2-2-2-2-2-2|2-2-2-2-2-2------------|-----------------------|
B|------------------------|------------3-3-3-3-3-3|2-2-2-2-2-2-2-2-2-2-2-2|

e|-----------------------------------|-------------------------------|-------------------|
B|-----------------------------------|-------------------------------|-------------------|
G|-----------------------------------|-------------------------------|-------------------|
D|-----------------------------------|-------------------------------|-------------------|
A|-----------------------------------|-------------------------------|-------------------|
E|------------5-5-5-5-5-5-5-5-5-5-5-5|3-3-3-3-3-3-2-2-0-0-0-0-0-0-0-0|0-0-0-0------------|
B|0-0-0-0-0-0------------------------|-------------------------------|--------3-3-3-3-3-3|

Guitar 2:
e|------------------------|-----------------------|-----------------------|
B|------------------------|-----------------------|-----------------------|
G|------------------------|-----------------------|-----------------------|
D|------------------------|------------4-4-4-4-4-4|-----------------------|
A|-7-7-7-7-7-7-7-7-7-7-7-7|7-7-7-7-7-7------------|7-7-7-7-7-7-7-7-7-7-7-7|
E|------------------------|-----------------------|-----------------------|
B|------------------------|-----------------------|-----------------------|

e|-----------------------------------|---------------------------------|-------------------|
B|-----------------------------------|---------------------------------|-------------------|
G|-----------------------------------|---------------------------------|-------------------|
D|-----------------------------------|---------------------------------|--------4-4-4-4-4-4|
A|5-5-5-5-5-5-4-4-4-4-4-4-4-4-4-4-4-4|4-4-4-4-4-4-5-5-5/7-7-7-7-7-7-7-7|7-7-7-7------------|
E|-----------------------------------|---------------------------------|-------------------|
B|-----------------------------------|---------------------------------|-------------------|

[Chorus]
Guitar 1:
e|-----------------|--------|---------|-------|-----------------|-----------------|
B|-----------------|--------|---------|-------|-----------------|-----------------|
G|-----------------|--------|---------|-------|-----------------|-----------------|
D|-----------------|-2------|---------|-2-----|-----------------|-----------------| x2
A|---0-2-0---------|-2------|---------|-2-----|---0-2-0---------|-2/3-------------|
E|-3-------3-----5-|-0------|-5-3-0---|-0-----|-3-------3-----5-|-----0-0-0-0-0-0-|
B|-----------0-3---|--------|-------3-|-------|-----------0-3---|-----------------|

Guitar 2:
e|-----------------|-----|---------|-----|-----------------|-------------------|
B|-----------------|-----|---------|-----|-----------------|-------------------|
G|-----------------|-----|---------|-----|-----------------|-------------------|
D|-----------------|-2---|---------|-2---|-----------------|-------------------| x2
A|-2-4-5-4-2-0---4-|-2---|-4-2-0---|-2---|-2-4-5-4-2-0---4-|-3/5h7-------------|
E|-------------2---|-0---|-------2-|-0---|-------------2---|-------0-0-0-0-0-0-|
B|-----------------|-----|---------|-----|-----------------|-------------------|

[Verse 3]
Guitar 1:
e|------------------------|-----------------------|-----------------------|
B|------------------------|-----------------------|-----------------------|
G|------------------------|-----------------------|-----------------------|
D|------------------------|-----------------------|-----------------------|
A|------------------------|-----------------------|-----------------------|
E|-2-2-2-2-2-2-2-2-2-2-2-2|2-2-2-2-2-2------------|-----------------------|
B|------------------------|------------3-3-3-3-3-3|2-2-2-2-2-2-2-2-2-2-2-2|

e|-----------------------------------|-------------------------------|-------------------|
B|-----------------------------------|-------------------------------|-------------------|
G|-----------------------------------|-------------------------------|-------------------|
D|-----------------------------------|-------------------------------|-------------------|
A|-----------------------------------|-------------------------------|-------------------|
E|------------5-5-5-5-5-5-5-5-5-5-5-5|3-3-3-3-3-3-2-2-0-0-0-0-0-0-0-0|0-0-0-0------------|
B|0-0-0-0-0-0------------------------|-------------------------------|--------3-3-3-3-3-3|

Guitar 2:
e|------------------------|-----------------------|-----------------------|
B|------------------------|-----------------------|-----------------------|
G|------------------------|-----------------------|-----------------------|
D|------------------------|------------4-4-4-4-4-4|-----------------------|
A|-7-7-7-7-7-7-7-7-7-7-7-7|7-7-7-7-7-7------------|7-7-7-7-7-7-7-7-7-7-7-7|
E|------------------------|-----------------------|-----------------------|
B|------------------------|-----------------------|-----------------------|

e|-----------------------------------|---------------------------------|-------------------|
B|-----------------------------------|---------------------------------|-------------------|
G|-----------------------------------|---------------------------------|-------------------|
D|-----------------------------------|---------------------------------|--------4-4-4-4-4-4|
A|5-5-5-5-5-5-4-4-4-4-4-4-4-4-4-4-4-4|4-4-4-4-4-4-5-5-5/7-7-7-7-7-7-7-7|7-7-7-7------------|
E|-----------------------------------|---------------------------------|-------------------|
B|-----------------------------------|---------------------------------|-------------------|

[Chorus 2]
Guitar 1:
e|-----------------|--------|---------|-------|-----------------|-----------------|
B|-----------------|--------|---------|-------|-----------------|-----------------|
G|-----------------|--------|---------|-------|-----------------|-----------------|
D|-----------------|-2------|---------|-2-----|-----------------|-----------------| x2
A|---0-2-0---------|-2------|---------|-2-----|---0-2-0---------|-2/3-------------|
E|-3-------3-----5-|-0------|-5-3-0---|-0-----|-3-------3-----5-|-----0-0-0-0-0-0-|
B|-----------0-3---|--------|-------3-|-------|-----------0-3---|-----------------|

Guitar 2:
e|-----------------|-----|---------|-----|-----------------|-------------------|
B|-----------------|-----|---------|-----|-----------------|-------------------|
G|-----------------|-----|---------|-----|-----------------|-------------------|
D|-----------------|-2---|---------|-2---|-----------------|-------------------| x2
A|-2-4-5-4-2-0---4-|-2---|-4-2-0---|-2---|-2-4-5-4-2-0---4-|-3/5h7-------------|
E|-------------2---|-0---|-------2-|-0---|-------------2---|-------0-0-0-0-0-0-|
B|-----------------|-----|---------|-----|-----------------|-------------------|

[Pre-solo]
Guitar 1:
e|------------------------|-----------------------|-----------------------|
B|------------------------|-----------------------|-----------------------|
G|------------------------|-----------------------|-----------------------|
D|------------------------|-----------------------|-----------------------|
A|------------------------|-----------------------|-----------------------|
E|-2-2-2-2-2-2-2-2-2-2-2-2|2-2-2-2-2-2------------|-----------------------|
B|------------------------|------------3-3-3-3-3-3|2-2-2-2-2-2-2-2-2-2-2-2|

e|-----------------------------------|-------------------------------|-------------------|
B|-----------------------------------|-------------------------------|-------------------|
G|-----------------------------------|-------------------------------|-------------------|
D|-----------------------------------|-------------------------------|-------------------|
A|-----------------------------------|-------------------------------|-------------------|
E|------------5-5-5-5-5-5-5-5-5-5-5-5|3-3-3-3-3-3-2-2-0-0-0-0-0-0-0-0|0-0-0-0------------|
B|0-0-0-0-0-0------------------------|-------------------------------|--------3-3-3-3-3-3|

Guitar 2:
e|------|-----------|-----------|---------------------------|--------|----|
B|------|-----------|-----------|---------------------------|--------|----|
G|--/8\-|-/12\-/15\-|-/17\-/19\-|-/19\--/21\-/21\-/21\-/21\-|-/21\~--|----|
D|------|-----------|-----------|---------------------------|--------|-2w-|
A|------|-----------|-----------|---------------------------|--------|-2w-|
E|------|-----------|-----------|---------------------------|--------|-0w-|
B|------|-----------|-----------|---------------------------|--------|----|

[Solo]
Guitar 1:
e|-------------------|-------------------------------|--------------------------------------------|
B|-------------------|-------------------------17-19\|/19-19-20-19----19-20-22-20-19--------------|
G|-------------------|-------12-14s16-14-15s17-------|-------------21----------------21-20-21-21\-|
D|-14s7s14s7s14s7s14-|-12-14-------------------------|--------------------------------------------|
A|-------------------|-------------------------------|--------------------------------------------|
E|-------------------|-------------------------------|--------------------------------------------|
B|-------------------|-------------------------------|--------------------------------------------|

e|-------------------------|-------------------------------------------|
B|-------------------------|-------------------------------------------|
G|----------14-16-18s19-17-|-------------------18-19s21-19-------------|
D|-14-16-18----------------|-19-17-16s17-19-21-------------23-21-19s21-|
A|-------------------------|-------------------------------------------|
E|-------------------------|-------------------------------------------|
B|-------------------------|-------------------------------------------|

e|------27-22----26-23-------|-------19h24p19----------19h24p19----|------------|
B|-24---------24-------22----|----20----------20----20----------20-|------------|
G|------------------------24\|-22----------------22----------------|-23wwwwww-\-|
D|---------------------------|-------------------------------------|------------|
A|---------------------------|-------------------------------------|------------|
E|---------------------------|-------------------------------------|------------|
B|---------------------------|-------------------------------------|------------|

e|--------------------|--------------------------------|
B|-/17-15-------------|--------------------------------|
G|--------16-15-14s12-|--------------------------------|
D|--------------------|-14-12--------------------------|
A|--------------------|-------14-13-12-----------------|
E|--------------------|----------------15-12w----------|
B|--------------------|--------------------------------|

Guitar 2:
e|------------------------|-----------------------|-----------------------|
B|------------------------|-----------------------|-----------------------|
G|------------------------|-----------------------|-----------------------|
D|------------------------|------------4-4-4-4-4-4|-----------------------|
A|-7-7-7-7-7-7-7-7-7-7-7-7|7-7-7-7-7-7------------|7-7-7-7-7-7-7-7-7-7-7-7|
E|------------------------|-----------------------|-----------------------|
B|------------------------|-----------------------|-----------------------|

e|-----------------------------------|---------------------------------|-------------------|
B|-----------------------------------|---------------------------------|-------------------|
G|-----------------------------------|---------------------------------|-------------------|
D|-----------------------------------|---------------------------------|--------4-4-4-4-4-4|
A|5-5-5-5-5-5-4-4-4-4-4-4-4-4-4-4-4-4|4-4-4-4-4-4-5-5-5/7-7-7-7-7-7-7-7|7-7-7-7------------|
E|-----------------------------------|---------------------------------|-------------------|
B|-----------------------------------|---------------------------------|-------------------|

[Verse 4]
Guitar 1:
e|------------------------|-----------------------|-----------------------|
B|------------------------|-----------------------|-----------------------|
G|------------------------|-----------------------|-----------------------|
D|------------------------|-----------------------|-----------------------|
A|------------------------|-----------------------|-----------------------|
E|-2-2-2-2-2-2-2-2-2-2-2-2|2-2-2-2-2-2------------|-----------------------|
B|------------------------|------------3-3-3-3-3-3|2-2-2-2-2-2-2-2-2-2-2-2|

e|-----------------------------------|-------------------------------|-------------------|
B|-----------------------------------|-------------------------------|-------------------|
G|-----------------------------------|-------------------------------|-------------------|
D|-----------------------------------|-------------------------------|-------------------|
A|-----------------------------------|-------------------------------|-------------------|
E|------------5-5-5-5-5-5-5-5-5-5-5-5|3-3-3-3-3-3-2-2-0-0-0-0-0-0-0-0|0-0-0-0------------|
B|0-0-0-0-0-0------------------------|-------------------------------|--------3-3-3-3-3-3|

Guitar 2:
e|------------------------|-----------------------|-----------------------|
B|------------------------|-----------------------|-----------------------|
G|------------------------|-----------------------|-----------------------|
D|------------------------|------------4-4-4-4-4-4|-----------------------|
A|-7-7-7-7-7-7-7-7-7-7-7-7|7-7-7-7-7-7------------|7-7-7-7-7-7-7-7-7-7-7-7|
E|------------------------|-----------------------|-----------------------|
B|------------------------|-----------------------|-----------------------|

e|-----------------------------------|---------------------------------|-------------------|
B|-----------------------------------|---------------------------------|-------------------|
G|-----------------------------------|---------------------------------|-------------------|
D|-----------------------------------|---------------------------------|--------4-4-4-4-4-4|
A|5-5-5-5-5-5-4-4-4-4-4-4-4-4-4-4-4-4|4-4-4-4-4-4-5-5-5/7-7-7-7-7-7-7-7|7-7-7-7------------|
E|-----------------------------------|---------------------------------|-------------------|
B|-----------------------------------|---------------------------------|-------------------|

[Chorus 3]
Guitar 1:
e|-----------------|--------|---------|-------|-----------------|-----------------|
B|-----------------|--------|---------|-------|-----------------|-----------------|
G|-----------------|--------|---------|-------|-----------------|-----------------|
D|-----------------|-2------|---------|-2-----|-----------------|-----------------| x2
A|---0-2-0---------|-2------|---------|-2-----|---0-2-0---------|-2/3-------------|
E|-3-------3-----5-|-0------|-5-3-0---|-0-----|-3-------3-----5-|-----0-0-0-0-0-0-|
B|-----------0-3---|--------|-------3-|-------|-----------0-3---|-----------------|

Guitar 2:
e|-----------------|-----|---------|-----|-----------------|-------------------|
B|-----------------|-----|---------|-----|-----------------|-------------------|
G|-----------------|-----|---------|-----|-----------------|-------------------|
D|-----------------|-2---|---------|-2---|-----------------|-------------------| x2
A|-2-4-5-4-2-0---4-|-2---|-4-2-0---|-2---|-2-4-5-4-2-0---4-|-3/5h7-------------|
E|-------------2---|-0---|-------2-|-0---|-------------2---|-------0-0-0-0-0-0-|
B|-----------------|-----|---------|-----|-----------------|-------------------|

[Ending]
Guitar 1:
e|------------|---------------|-----------|
B|------------|---------------|-----------|
G|------------|---------------|-----------|
D|------------|---------------|--------2--|
A|------------|---------------|--------2--|
E|-0-0-0-0-0-0|0-0-0-0-0-0-0-0|0-0-0-0-0--|
B|------------|---------------|-----------|

Guitar 2:
e|------------|---------------|-----------|
B|------------|---------------|-----------|
G|------------|---------------|-----------|
D|------------|---------------|--------2--|
A|------------|---------------|--------2--|
E|-0-0-0-0-0-0|0-0-0-0-0-0-0-0|0-0-0-0-0--|
B|------------|---------------|-----------|


**********************************************************************

| ~     vibrato
| h     hammer on
| w     whammy bar
| /     slide
| Tp  tremolo picking
| /-\   slide up and back down the neck quickly on that string

***********************************************************************

            
            
Suggest correction
Creating personal tab
Creating personal tab
You can edit any tab online and save it as your Personal.

You can edit, replace or remove any tab part or add personal notes – all changes will be seen only by you.

Personal tabs can be accessed anytime from any device, even offline.
Learn more »
Give kudos to tab author, rate the tab!
1 2 3 4 5
comments
print report bad tab
guest
You may want to rate the tab now too:
select rating
Wanna post a correction for this tab? Suggest correction