Oops, an error
Loading. Please wait.

Mi Tierra Tab

25 views 3 this week
no commentswrite comment
1 2 3 4 5
3 more votes to show rating
add to favorites
launch autoscroll
font size
0
reset
how to read this tab
guitar tuner
×
Best way to learn
"Mi Tierra"
Autoscroll
slow
fast
+/-
esc
set tempo
stop
Intro:

1)------------------------------------5-7-5-7(8)-(8)7-5-|
2)---------------------------5-----5/7------------------|
3)-----2--4(5)-(5)4-2-2-4(5)--4-2-2----------------------|
4)-2/4---------------4-----------4-----------------------|
5)------------------------------------------------------|
6)------------------------------------------------------|

verso:

1)----0------0----|----0------0----|----0------0----|----0-------1---|
2)---2-2-2--2-2-2-|---2-2-2--2-2-2-|---2-2-2--2-2-2-|---2-2-2-----1-1|
3)--2---2--2---2--|--2---2--2---2--|--2---2--2---2--|--2---2---2---2-|
4)----------------|----------------|----------------|---------3-3----|
5)-0------0-------|----------------|----------------|----------------|
6)----------------|-3------3-------|-2------2-------|-1------1-------|
Quiero fundirme con esta tierra de milagros, convertirme en la espuma
                                                   de tus mares y en tu sol
1)----0------0----|----0------0----|----0------0----|----0----|
2)---2-2-2--2-2-2-|---2-2-2--2-2-2-|---2-2-2--2-2-2-|---2-2-2-|
3)--2---2--2---2--|--2---2--2---2--|--2---2--2---2--|--2---2--| F
4)----------------|----------------|----------------|---------|
5)-0------0-------|----------------|----------------|---------|
6)----------------|-3------3-------|-2------2-------|-1-------|
que caminen hoy mis pasos todos tus lugares ser la piedra que
                                               conforme tus muros sagrados

Pre-Coro:

F#m                 Gm G#m                      Gm F#m                Gm
  Ser la voz de los profetas, de tus libros ser la letra, ser la nube en tu
  G#m
 cielo, el
          Gm  F#m                     A      B7
polvo en tu suelo de ti quiero ser el único dueño

Coro:

1)----|----|----|----|
2)----|----|----|----|
3)-1--|-6--|-8--|-6--|
4)-2--|-6--|-8--|-6--|
5)-2--|-7--|-9--|-7--|
6)----|----|----|----|
Te regalo inciertas certezas,
te desbordo de grandes promesas

1)----|----|----|----|
2)----|----|----|----|
3)-1--|-6--|-8--|-6--|
4)-2--|-6--|-8--|-6--|
5)-2--|-7--|-9--|-7--|
6)----|----|----|----|
Solo quiero sentirte mi tierra,
quiero fundirme en tu estrella

Nexo:
1)-----------------------------|
2)------------3-5(6)-(6)5-3-5--|
3)---------2h4-------------4---|
4)-2-2/4-4---------------------|
5)-----------------------------|
6)-----------------------------|

verso:

1)----0------0----|----0------0----|----0------0----|----0-------1---|
2)---2-2-2--2-2-2-|---2-2-2--2-2-2-|---2-2-2--2-2-2-|---2-2-2-----1-1|
3)--2---2--2---2--|--2---2--2---2--|--2---2--2---2--|--2---2---2---2-|
4)----------------|----------------|----------------|---------3-3----|
5)-0------0-------|----------------|----------------|----------------|
6)----------------|-3------3-------|-2------2-------|-1------1-------|
Quiero sentarme al sol de tus suaves dunas, ser una cueva oscura
                                                           muy profunda

1)----0------0----|----0------0----|----0------0----|----0----|
2)---2-2-2--2-2-2-|---2-2-2--2-2-2-|---2-2-2--2-2-2-|---2-2-2-|
3)--2---2--2---2--|--2---2--2---2--|--2---2--2---2--|--2---2--| F
4)----------------|----------------|----------------|---------|
5)-0------0-------|----------------|----------------|---------|
6)----------------|-3------3-------|-2------2-------|-1-------|
ser paredes que alberguen historias ocultas ser la luna que
                                         alumbre tus noches oscuras
Pre-Coro:

F#m              Gm  G#m                 Gm F#m                  Gm G#m
   Deshacerme en tu miel y dedicarte mil canciones, recorrerte otra vez y
             Gm F#m                  A         B7
revelar mis emociones Israel es única entre naciones

Coro:

1)----|----|----|----|
2)----|----|----|----|
3)-1--|-6--|-8--|-6--|
4)-2--|-6--|-8--|-6--|
5)-2--|-7--|-9--|-7--|
6)----|----|----|----|
Te regalo inciertas certezas,
te desbordo de grandes promesas

1)----|----|----|----|
2)----|----|----|----|
3)-1--|-6--|-8--|-6--|
4)-2--|-6--|-8--|-6--|
5)-2--|-7--|-9--|-7--|
6)----|----|----|----|
Solo quiero sentirte mi tierra,
quiero fundirme en tu estrella

[Solo de saxo]
(guitarra igual que el coro)

Coro:

1)----|----|----|----|
2)----|----|----|----|
3)-1--|-6--|-8--|-6--|
4)-2--|-6--|-8--|-6--|
5)-2--|-7--|-9--|-7--|
6)----|----|----|----|
Te regalo inciertas certezas,
te desbordo de grandes promesas


1)----|----|----|----|
2)----|----|----|----|
3)-1--|-6--|-8--|-6--|
4)-2--|-6--|-8--|-6--|
5)-2--|-7--|-9--|-7--|
6)----|----|----|----|

[Solo de saxo 2]
(Guitarra igual que el coro)
Suggest correction
Give kudos to tab author, rate the tab!
1 2 3 4 5
comments
print report bad tab
guest
You may want to rate the tab now too:
select rating
Wanna post a correction for this tab? Suggest correction