Oops, an error
Loading. Please wait.

Soy Tab

30 views 1 this week
no commentswrite comment
1 2 3 4 5
3 more votes to show rating
add to favorites
×
Save as Personal and add changes to this tab that will be seen only by you. Learn more ›
×
You can save this tab as Personal to edit and correct it or add notes. All changes will be seen only by you. Learn more »
save as personal
new!
launch autoscroll
font size
0
reset
how to read this tab
guitar tuner
Autoscroll
slow
fast
+/-
esc
set tempo
stop
Soy          _______________
            |Arm = armónicos|

Intro:

1)----------------------0-0-0--0-------------------------||
2)----------------3-----3/5-5--3---------3----------3----||
3)-------0-----2----2---0-0-0--0------0----0-0----2--2-2-||  x3
4)---0h2---2-4---4----4-x-x-x--0----2---2---2----4-4--4--||
5)----------------------5/7-7--2-3--------------5--------||
6)-0--------------------x-x-x--x-------------------------||

1)---------------------------------------------------------
2)---------------------------------------------------------
3)---------------------------------------------------------
4)--5-5-4-4-0-0-2-2-----5-5-4-4-0-0-2-------5-5-4-4-0-0-2-2
5)-------------------------------------0-2-3---3---3---3---
6)-0---0---0---0---0-0-0---0---0---0-----------------------

                    |Arm|
1)------------------------||
2)------------------------||
3)--------------------7---||
4)------5-5-4-4-0-0---7---||
5)-0-2-3---3---3---3------||
6)------------------------||


Verso:

1)------------------------|
2)------------------------|
3)------------------------|
4)--5-5-4-4-0-0-2-2-------|
5)------------------------|
6)-0---0---0---0---0-0-0--|
  Quieras o no, no hay como escapar


1)----------------|
2)----------------|
3)----------------|
4)-5-5-4-4-0-0-2--|
5)----------------|
6)----0---0---0---|
Oculto en tus sueños te puedo encontrar


1)------------------------|
2)------------------------|
3)------------------------|
4)-------5-5-4-4-0-0-2-2--|
5)--0-2-3---3---3---3-----|
6)------------------------|
     Aun en la distancia me puedes llamar


1)---------------------|
2)---------------------|
3)---------------------|
4)------5-5-4-4-0-0-2-|
5)-0-2-3---3---3---3---|
6)---------------------|
  Tu dulce sentencia?


1)----------------------|
2)----------------------|
3)----------------------|
4)--5-5-4-4-0-0-2-2-----|
5)----------------------|
6)-0---0---0---0---0-0-0|
  Estoy en tu esencia, en tu forma de ser

1)---------------|
2)---------------|
3)---------------|
4)-5-5-4-4-0-0-2-|
5)---------------|
6)----0---0---0--|
 La historia de un pueblo marcada en tu piel

1)----------------------|
2)---------0--------0---|
3)-------5--5-5---7--7-7|
4)------5-5--5---7-7--7-|
5)-0-2-3-------5--------|
6)----------------------|
    Ninguna distancia podría perdonar

      Em      B5 C5
1)------3p2---2/3----------||
2)----5-------2/3----------||
3)---4--------4/5----------||
4)--2---------4/5----------||
5)------------2/3----------||
6)------------x-x----------||
Tu dulce condena?


Pre-coro:

Cmaj7    Bm E7sus4     Bm Bsus4                 Em Bsus4
  Mi testamento es el caudal que corre por tus venas
B5/C5 Asus2    Bm C5         Gm    D5          D9
        La profecía de un hogar?mi única promesa

Coro:
B5   C5    D5     E5
Búscame, siénteme cerca
  B5     C5    G          A
Y yo estaré, siempre esperándote
B5       C5         D5         E5
Soy tu hogar, tu historia, tu tierra
        B5         C5      G A
Que el miedo no te haga olvidar.

Verso:
1)-----------|----------|----------|----------|
2)-----3-----|-----3----|-----0----|-----0----|
3)---0--0-0--|---0--0-0-|---0--0-0-|---0--0-0-|
4)--2-2--2---|--4-4--4--|--5-5--5--|--7-7--7--|
5)-3---------|-5--------|-7--------|-9--------|
6)-----------|----------|----------|----------|
Certero el corazón,  jamás  nos  mentira

1)-----------|----------|----------|----------|
2)-----3-----|-----3----|-----0----|-----0----|
3)---0--0-0--|---0--0-0-|---0--0-0-|---0--0-0-|
4)--2-2--2---|--4-4--4--|--5-5--5--|--7-7--7--|
5)-3---------|-5--------|-7--------|-9--------|
6)-----------|----------|----------|----------|
Te guiará hacia el cual cree que es su lugar

1)-----------|----------|----------|----------|
2)-----3-----|-----3----|-----0----|-----0----|
3)---0--0-0--|---0--0-0-|---0--0-0-|---0--0-0-|
4)--2-2--2---|--4-4--4--|--5-5--5--|--7-7--7--|
5)-3---------|-5--------|-7--------|-9--------|
6)-----------|----------|----------|----------|
Su voz revela lo que tú pretendes ocultar

1)-----------|----------|----------|----------|
2)-----3-----|-----3----|-----0----|-----0----|
3)---0--0-0--|---0--0-0-|---0--0-0-|---0--0-0-|
4)--2-2--2---|--4-4--4--|--5-5--5--|--7-7--7--|
5)-3---------|-5--------|-7--------|-9--------|
6)-----------|----------|----------|----------|
Tu identidad, tu pertenencia?


1)-----------|----------|----------|----------|
2)-----3-----|-----3----|-----0----|-----0----|
3)---0--0-0--|---0--0-0-|---0--0-0-|---0--0-0-|
4)--2-2--2---|--4-4--4--|--5-5--5--|--7-7--7--|
5)-3---------|-5--------|-7--------|-9--------|
6)-----------|----------|----------|----------|
Confusa devoción, eso que nunca pudiste explicar

1)-----------|----------|----------||
2)-----3-----|-----3----|-----0----||
3)---0--0-0--|---0--0-0-|---0--0-0-||
4)--2-2--2---|--4-4--4--|--5-5--5--||
5)-3---------|-5--------|-7--------||
6)-----------|----------|----------||
Te hará volver a mi, veras, y si lo quieres          D9
                                       no será una leyenda.

Coro:

B5   C5    D5     E5
Búscame, siénteme cerca
  B5     C5    G          A
Y yo estaré, siempre esperándote
B5       C5         D5         E5
Soy tu hogar, tu historia, tu tierra
        B5         C5      G A
Que el miedo no te haga olvidar.


Puente:
  Cadd9         Em9               Em        Gmaj13
1)-0----------|-0---------------|-0--------|-0--|
2)-3----------|-3---------------|-0--------|-0--|
3)-0----------|-0---------------|-0--------|-0--|
4)-2----------|-4---------------|-5--------|-7--|
5)-3----------|-5---------------|-7--------|-9--|
6)-x----------|-x---------------|-x--------|-x--|
Cuando llegarás, quiero pintar de sol tu amanecer,
            Cadd9                 Em
1)-----------------0----------|-0---------------|
2)-----------------3----------|-3---------------|
3)-----------------0----------|-0---------------|
4)-----------------2----------|-4---------------|
5)-----------------3----------|-5---------------|
6)-----------------x----------|-x---------------|
Quiero cuidarte y verte crecer,  Quiero mostrarme
Asus2
Todo y tal cual soy sinceramente.

D               E                  F#m
Cuando llegaras, el tiempo pasa y yo espero por ti
A                       D         E
 Quiero entregarte mi cielo y mi mar
                  F#m                        A
Y hoy debo darte, alas que te ayuden a encontrarme.


Solo:
(Guitarra 1)
1)----------------------------------------------------------8h10h11-
2)-------------8-9p8----------------------------------8h9h11--------
3)-10p8--10--10-----10----------------------------8h10--------------
4)-----10------------10-8--8-10------------8h10h12------------------
5)-----------------------11----8--8-8h10h11-------------------------
6)------------------------------------------------------------------

1)-13p11--13------------------16(18)-16-13h16p13-
2)------13--13h14-14(16)-14-13-------------------
3)-----------------------------------------------
4)-----------------------------------------------
5)-----------------------------------------------
6)-----------------------------------------------

1)-16p13-----13------------------------------------------------------||
2)------18p16--18p16p13---------------14p13-----14p13-----14p13------||
3)-----------------------------------------15p13-----15p13-----15p13-||
4)----------------------17p15-13-15----------------------------------||
5)---------------------------------15--------------------------------||
6)-------------------------------------------------------------------||

(Guitarra 2)
C#5 D5 E5 F#5
C#5 D5 A  B
C#5 D5 E5 F#5
C#5 D5 A  B  B

Coro:

           E5     F#5
Búscame, siénteme cerca
  C#5     D5   A          B
Y yo estaré, siempre esperándote
C#5       D5         E5         F#5
Soy tu hogar, tu historia, tu tierra
        C#5         D5     A B
Que el miedo no te haga olvidar.


Coro 2:
C#5   D5    E5     F#5
Búscame, siénteme cerca
C#5  D5   A           B
Y seré todo lo que anhelas
C#5    D5     E5      F#5
Sin temor, un futuro espera
         C#5        D5     A
Que el miedo no te haga olvidar.
       B
La historia esta por comenzar?

Fin:

F#m| A | B | F#5 E5 F#m ||
Suggest correction
Give kudos to tab author, rate the tab!
1 2 3 4 5
comments
print report bad tab
guest
Wanna post a correction for this tab? Suggest correction