Oops, an error
Loading. Please wait.

Im Not The Man tab

37 views 3 this week
no commentswrite comment
1 2 3 4 5
3 more votes to show rating
add to favorites
×
Save as Personal and add changes to this tab that will be seen only by you. Learn more ›
×
You can save this tab as Personal to edit and correct it or add notes. All changes will be seen only by you. Learn more »
launch autoscroll
font size
0
reset
how to read this tab
guitar tuner
edit
Autoscroll
slow
fast
+/-
esc
set tempo
stop
About this tab version
I have revised my earlier submission to include the whole song. The chorus can be fingerpicked or strummed. Was this info helpful? Yes No
  Intro

e|---------------------------------|--------------|----------|
B|-----3--3---1--1---0--0---1--1---|--0----0---0--|----------|
G|-----0--0---0--0---0--0---0--0---|--0----0---0--|----------|
D|---------------------------------|--2----2---0--|----------|
A|---------------------------------|--3----3---3--|----------|
E|---------------------------------|--------------|----------|


  Verse 
       Em           C             D            Em          4X
e|-----------------------------|-----------------------------|
B|-----------0-----------------|--------3------------0-------|
G|--------0-----0---------0----|-----2-----2------0-----0----|
D|-----1---------------2-----2-|--0------------1-------------|
A|------------------3----------|-----------------------------|
E|-----------------------------|-----------------------------|

  Intro

e|---------------------------------|--------------|----------|
B|-----3--3---1--1---0--0---1--1---|--0----0---0--|----------|
G|-----0--0---0--0---0--0---0--0---|--0----0---0--|----------|
D|---------------------------------|--2----2---0--|----------|
A|---------------------------------|--3----3---3--|----------|
E|---------------------------------|--------------|----------| 


  Verse 2
       Em           C             D            Em          4X
e|-----------------------------|-----------------------------|
B|-----------0-----------------|--------3------------0-------|
G|--------0-----0---------0----|-----2-----2------0-----0----|
D|-----1---------------2-----2-|--0------------1-------------|
A|------------------3----------|-----------------------------|
E|-----------------------------|-----------------------------|

   Intro

e|---------------------------------|--------------|----------|
B|-----3--3---1--1---0--0---1--1---|--0----0---0--|----------|
G|-----0--0---0--0---0--0---0--0---|--0----0---0--|----------|
D|---------------------------------|--2----2---0--|----------|
A|---------------------------------|--3----3---3--|----------|
E|---------------------------------|--------------|----------|

  Chorus 
    G            D/F#              G             C           2X
e|--3---------------------------|--3-------------0-------------|
B|--0-------------3-------------|--0-------------1-------------|
G|--0-------------2-------------|--0-------------0-------------|
D|--0-------------0-------------|--0-------------2-------------|
A|--x-------------x-------------|--x-------------3-------------|
E|--3-------------2-------------|--3---------------------------|

  After Chorus 1, there is one measure of 2/4 time
  Followed by 2 measures of Em in 4/
  2/4                           4/4 
       G         B                Em            
e|-----------------------------|----------------|---------------|
B|-----------------------------|--0-------------|---------------|
G|---------------4-------------|--0-------------|---------------|
D|-----5---------x-------------|--2-------------|---------------|
A|-----x---------2-------------|----------------|---------------|
E|-----3-----------------------|----------------|---------------|


   Verse 3
       Em           C             D            Em          4X
e|-----------------------------|-----------------------------|
B|-----------0-----------------|--------3------------0-------|
G|--------0-----0---------0----|-----2-----2------0-----0----|
D|-----1---------------2-----2-|--0------------1-------------|
A|------------------3----------|-----------------------------|
E|-----------------------------|-----------------------------|


   Intro

e|---------------------------------|--------------|----------|
B|-----3--3---1--1---0--0---1--1---|--0----0---0--|----------|
G|-----0--0---0--0---0--0---0--0---|--0----0---0--|----------|
D|---------------------------------|--2----2---0--|----------|
A|---------------------------------|--3----3---3--|----------|
E|---------------------------------|--------------|----------|

   Chorus 2
    G            D/F#              G             C           2X  
e|--3---------------------------|--3-------------0-------------|
B|--0-------------3-------------|--0-------------1-------------|
G|--0-------------2-------------|--0-------------0-------------|
D|--0-------------0-------------|--0-------------2-------------|
A|--x-------------x-------------|--x-------------3-------------|
E|--3-------------2-------------|--3---------------------------|

   After Chorus 2 there is one measure in 4/4 time

    G      B      
e|-----------------------------|
B|----------------0------------|
G|---------4------0-----0------|
D|--5------x------2-----2------|
A|--x------2-------------------|
E|--3--------------------------|


   Chorus 3
    G            D/F#              G             C           2X 
e|--3---------------------------|--3-------------0-------------|
B|--0-------------3-------------|--0-------------1-------------|
G|--0-------------2-------------|--0-------------0-------------|
D|--0-------------0-------------|--0-------------2-------------|
A|--x-------------x-------------|--x-------------3-------------|
E|--3-------------2-------------|--3---------------------------|

   After Chorus 3 Play the 2/4 measure again with the
   Two measures of Em in 4/4  
2/4                           4/4 
       G         B                Em            
e|-----------------------------|----------------|---------------|
B|-----------------------------|--0-------------|---------------|
G|---------------4-------------|--0-------------|---------------|
D|-----5---------x-------------|--2-------------|---------------|
A|-----x---------2-------------|----------------|---------------|
E|-----3-----------------------|----------------|---------------|


   The outro is the verse part played 8 times and ending on Em

       Em           C             D            Em          8X
e|-----------------------------|-----------------------------|
B|-----------0-----------------|--------3------------0-------|
G|--------0-----0---------0----|-----2-----2------0-----0----|
D|-----1---------------2-----2-|--0------------1-------------|
A|------------------3----------|-----------------------------|
E|-----------------------------|-----------------------------|

            
            
Suggest correction
Creating personal tab
Creating personal tab
You can edit any tab online and save it as your Personal.

You can edit, replace or remove any tab part or add personal notes – all changes will be seen only by you.

Personal tabs can be accessed anytime from any device, even offline.
Learn more »
Give kudos to tab author, rate the tab!
1 2 3 4 5
comments
print report bad tab
guest
You may want to rate the tab now too:
select rating
Wanna post a correction for this tab? Suggest correction