Oops, an error
Loading. Please wait.

There Was You tab

by Cueshé
528 views 1 this week
no commentswrite comment
1 2 3 4 5
3 more votes to show rating
add to favorites
×
Save as Personal and add changes to this tab that will be seen only by you. Learn more ›
×
You can save this tab as Personal to edit and correct it or add notes. All changes will be seen only by you. Learn more »
launch autoscroll
font size
0
reset
how to read this tab
guitar tuner
edit
Autoscroll
slow
fast
+/-
esc
set tempo
stop
Author
Band/Artist: CUESHE

Song:  THERE WAS YOU
Tabbed by: Paul Kingsly Labasan

Intro : D-G-D (piano)

              D-G             D
When I needed love, there was you
             D           G             D
When I need someone to hold, there was you
      Em                        A                  D
But my eyes couldn't see what I had when there was you

             D         G                 D  
With all the pains and tears, won't go away
           D          G                D
With these arms I'm reaching for you stay
           Em                     A                 D
Comparing my wrongs with his inventions, I'm not enough


Chorus:

  Em
I miss the times you hate me, 
 G
Cause the only shows that you love me
 D                                  A
Bring back those nights so I could see you again
 Em G Em
Rather have these slents nights screaming
G
Cause without you there's no meaning
D                    A G Gm D
When will I see you again?

            D           G              D
As far as the east from west did you forgive
          G               D
And I'll be here help you forget
  Em
All I want is to mend a broken
A                   D
Heart that's part of you


Chorus 2:

Em
I miss the times you hate me
G
Cause they only shows that you love
D                                       A
Bring back those nights so I Could see you again
Em G Em
Rather have these silent nights screaming
G
Cause without you there's no meaning
D
Bring back those nights so I could see you again
Em G Em
Hold on to me as we're trying
G
erase the memories of crying
D                    A G Gm D
When will I see you again         ohhh

Bridge: (Solo Part)

e|----------------------------|------------------------------|
B|-------15-------------------|-------15---------------------|
G|-11-12----11-12-12-12-12-12-|-11-12----11-12-12-12-12-12---|
D|----------------------------|------------------------------|
A|----------------------------|------------------------------|
E|----------------------------|------------------------------|

e|-------------------------------------------------|
B|----------------------------------10-------------|
G|-12/14-14-14b-12-11-11h12-11/9-9b----11----------|
D|----------------------------------------9--------|
A|-------------------------------------------------|
E|-------------------------------------------------|

e|----------------------------|------------------------------|
B|-------15-------------------|-------15---------------------|
G|-11-12----11-12-12-12-12-12-|-11-12----11-12-12-12-12-12---|
D|----------------------------|------------------------------|
A|----------------------------|------------------------------|
E|----------------------------|------------------------------|

e|--------14---14---14---14-----17----17---17---17-------|
B|---/15----15---15---15----/15----15---15---15---15-----|
G|----------------------------|--------------------------|
D|----------------------------|--------------------------|
A|----------------------------|--------------------------|
E|----------------------------|--------------------------|

Repeat Chorus:

End...

Pakirate na lang poh.. Salamat

Suggest correction
Creating personal tab
Creating personal tab
You can edit any tab online and save it as your Personal.

You can edit, replace or remove any tab part or add personal notes – all changes will be seen only by you.

Personal tabs can be accessed anytime from any device, even offline.
Learn more »
Give kudos to tab author, rate the tab!
1 2 3 4 5
comments
print report bad tab
guest
You may want to rate the tab now too:
select rating
Wanna post a correction for this tab? Suggest correction