Oops, an error
Loading. Please wait.

Dom Kommer Kliva På Dig Igen chords

version 2
version 2

Whole song

2,834 views 12 this week
no commentswrite comment
1 2 3 4 5
x 4
add to favorites
×
Save as Personal and add changes to this tab that will be seen only by you. Learn more ›
×
You can save this tab as Personal to edit and correct it or add notes. All changes will be seen only by you. Learn more »
launch autoscroll
font size
0
reset
transpose
0
reset
display chords
guitar tuner
edit
Autoscroll
slow
fast
+/-
esc
set tempo
stop
Author
Difficulty
Strumming
There is no strumming pattern for this song yet. and get +5 IQ
e-------------------------------------------------------------------------|
B-------------------------------------------------------------------------|
G-------------------------------------------------------------------------|
D-------0-2-2-2-2-0------------------------0-2-2-2-2-0-----2--------------|
A----2--------------2-0------------------2-------------2-0----------------|
E--3--------------------3--------------3----------------------------------|

e-------------------------------------------------------------------------|
B----------------------------------8----------------------8---------------|
G---9--7-----9-7-9-7---77-9-7-7--9----------7-9------------------7--------|
D----------9----------------------------7-9------------------9------------|
A-------------------------------------------------------------------------|
E-------------------------------------------------------------------------|


e-------------------------------------------------------------------------|
B-------------------------------------------------------------8-----------|
G------7-9-9-9-99-7---7------7-9-77-----9-7-9-7----77-9-7-7-9-------------|
D--7-9--------------9----7-9----------9-----------------------------------|
A-------------------------------------------------------------------------|
E-------------------------------------------------------------------------|

Verse:  Em G C G Bm C D x2
Bridge: C G C G
Chorus: C D Em G
     
           Em                      G
  En pojke sköt sig ut från skolgården
         C       G
  Det är på alla framsidor
Bm
  och jag förstår honom
           C             D
  för folk skrattade åt mig
          Em          G
  när jag pratade om dig
             C        G
  när jag försvarade dig
Bm
  jag gick runt och mumlade
C     D
  jag sa inget mer
C     G                    C     G
  bakgator, jag mötte dig på bakgator


C            D
  Dom kommer kliva på dig
Em                    G      
  Dom kommer kliva på dig igen


           Em             G     
  Jag fick lift ner till Malmö
      C          G
 på ett statoilflak
Bm                           C                 D
  sökte varje jobb, ja varje jobb jag kunde hitta
        Em         G
  Till sist en tatuerare
            C                  G
  Han sa du är för ung och så är det med det
Bm
  Ta mitt råd och åk tillbaka hem
       C          D            C    G
  Mina ögon brann när jag hörde
          C
  Så jag stal en bil
           G                  C
  för inga bilar gav lift tillbaka


             D
  dom skulle kliva på mig
Em                    G       
  dom skulle kliva på mig igen


            Em                 G
  Jag sålde fjorton gram Marocko finest
         C                   G
  i korridoren på Åvägens studenthem
     Bm
  En dag ringde en "Klas" från ett skivbolag
              C                D
  och sa "det kan nog bli nåt av dig"
           Em               G
  men jag läste inte ens kontraktet
                   C                   G
  för jag fick en tågbiljett och ett hotell på natten
Bm
  nu tar jag med mig pengarna hem
       C                 D
  för själen jag nästan sålde
             C        G
  Jag sitter ensam i parken
                 C                     G
  men jag gjorde alltid mitt bästa för den jag älskade

C            D
  Dom kommer kliva på mig
Em                    G        
  dom kommer kliva på mig igen

C G C G

C            D
  Dom kommer kliva på dig
Em                    G        
  dom kommer kliva på dig igen

C G C G

C            D
  Dom kommer kliva på mig
Em                    G        
  dom kommer kliva på mig igen

            
            
Suggest correction
Creating personal tab
Creating personal tab
You can edit any tab online and save it as your Personal.

You can edit, replace or remove any tab part or add personal notes – all changes will be seen only by you.

Personal tabs can be accessed anytime from any device, even offline.
Learn more »
comments
print report bad tab
guest
You may want to rate the tab now too:
select rating
Wanna post a correction for this tab? Suggest correction