Oops, an error
Loading. Please wait.

Nao Sou O Unico chords

14,762 views 3 this week
5 commentsread comments
1 2 3 4 5
x 11
add to favorites
×
Save as Personal and add changes to this tab that will be seen only by you. Learn more ›
×
You can save this tab as Personal to edit and correct it or add notes. All changes will be seen only by you. Learn more »
launch autoscroll
font size
0
reset
transpose
0
reset
display chords
guitar tuner
edit
Autoscroll
slow
fast
+/-
esc
set tempo
stop
Author
Strumming
There is no strumming pattern for this song yet. and get +5 IQ
http://www.xutos.pt/
portugal

Xutos & Pontapés
"Não Sou o Único" - baseado no álbum
"Vida Malvada"

SOLO:

   Am                 G
e|-0------------------3--5--7--8-7-5--3--5-3--1--0-----------------|
B|-1-----0--1--3--5---3-----------------------------3--1--0--------|
G|-2--2---------------0--------------------------------------------|
D|-2------------------0--------------------------------------------|
A|-0------------------2--------------------------------------------|
E|-0------------------3--------------------------------------------|


Intro: SOLO x2


Am                   G
Pensas que eu sou um caso isolado
Dm               C
Não sou o único a olhar o céu
Am              G
A ver os sonhos partirem
Dm                C
À espera que algo aconteça


Am           G
A despejar a minha raiva
Dm         C
A viver as emoções
Am          G
A desejar o que não tive
Dm          C
Agarrado às tentações


Refrão 1:

	F                  C
	E quando as nuvens partirem
	Dm            A
	O céu azul ficará
	F                   C
	E quando as trevas se abrirem
	Dm                    G
	Vais ver o sol brilhará
	                      Am
	Vais ver o sol brilhará


Refrão 2:

	Am             G
	Não! Não sou o único
	             Dm
	(Eu não sou o único)
	                C
	Não sou o único a olhar o céu
	Am             G
	Não! Não sou o único
	             Dm
	(Eu não sou o único)
	                C
	Não sou o único a olhar o céu

(SOLO) x2


Am                   G
Pensas que eu sou um caso isolado
Dm               C
Não sou o único a olhar o céu
Am                  G
A ouvir os concelhos dos outros
Dm                 C
E sempre a cair nos buracos


Am          G
A desejar o que não tive
Dm              C
Agarrado ao que não tenho
Am             G
Não! Não sou o único
Dm               C
Não sou o único a olhar o céu


Refrão 1

Refrão 2  x3

Am  G  Dm  C
Am  G  Dm  C
Am  G  Dm  C


by Paw irc.ptlink.net  #guitar
Suggest correction
Creating personal tab
Creating personal tab
You can edit any tab online and save it as your Personal.

You can edit, replace or remove any tab part or add personal notes – all changes will be seen only by you.

Personal tabs can be accessed anytime from any device, even offline.
Learn more »
comments
print report bad tab
5 comments total. Showing first comments.
0 reply
Folen_Scent 42 Apr 22, 2007 09:27 AM

Uma excelente música, de uma das melhores bandas portuguesas de sempre!! 5* ;)

+1 reply
luismelo4 10 Nov 24, 2007 12:27 PM

a musica ta mto fx mas isto é a versao dos resistencia e nao a dos xutos mesmo assim mto fx xD

+3 reply
Coronas 194 Feb 14, 2008 01:51 PM

o luismelo4 tem razao. a intro k puseste e a da versao dos resistencia

a dos xutos e esta

e|-----|:-------------------------------------------
B|-----|:------------------------------------------------------------------------:|
G|-----|:------------------------------4---5--4----------------------------------:|
D|-----|:----------------------5---7--------------7--5---7--5--------------------:|
A|-----|:------------5--7--8------------------------------------8--7--5----------:|
E|--5--|:--5--7--8--------------------------------------------------------8--7--5:|

guest
You may want to rate the tab now too:
select rating
Wanna post a correction for this tab? Suggest correction