Oops, an error
Loading. Please wait.

Chuva Dissolvente Tab

version 1
version 1

Whole song

Interactive

1,897 views 1 this week
no commentswrite comment
1 2 3 4 5
please rate
add to favorites
launch autoscroll
font size
0
reset
how to read this tab
guitar tuner
Tab Pro tools
  • play this tab
  • loop segment
  • change instrument
  • show fretboard
  • metronome
Autoscroll
slow
fast
+/-
esc
set tempo
stop
Contributor
-------------------------------------------------------------------------------
                             Chuva Dissolvente solo - Xutos e Pontapés
-------------------------------------------------------------------------------
Tabbed by:Antonio23 (aka SorrisosIronicos)
Email:antonio.flavio.af@hotmail.com

Tuning: standart

e|---------------------------------------------------------------------------|
B|-------------------------------------------------------------8br-7-5-------|
G|----------------------------------------------------------------------7----|
D|---------------------------------------------------------------------------|
A|---------------------------------------------------------------------------|
E|---------------------------------------------------------------------------|

e|-------------------3-----3-------------------5^-5--------------------------|
B|------------------------------------5^-----5------8---5--------------------|
B|-5-5-7-9-9-9-7-5-4---4/5---4/5--4-5----5-7----------7b--7-5-7-5-4hbr2------|
D|---------------------------------------------------------------------------|
A|----------------------------------------------------------------------3-0--|
E|---------------------------------------------------------------------------|

e|---------------------------------5-5-5-8-5-7-7hbr-5------------------------|
B|---------------------------------5-5-5---5----------8-7-[7]hbr-5-----------|
G|---------------2--4^-5^-[5]<-----------------------------------------------|
D|-----0-2-1-0------------------>7-------------------------------------------|
A|-0-3---------3-------------------------------------------------------------|
E|---------------------------------------------------------------------------|

e|------------------------------------------5^-------------------------------|
B|----------------------------------------5----5-7-8-8b-8-7-5-7-7hb-7hbr-5---|
G|-7br-5br-4hbr-------------------------5------------------------------------|
D|--------------7-5-4-----------------7--------------------------------------|
A|--------------------7-5-3-2<-----------------------------------------------|
E|----------------------------->3/5------------------------------------------|

e|---------------------------------------------------------------------------|
B|-5--5----------------------------------------------------------------------|
G|-7b---7br-5-8p5-7p5-55-8p5-7p5-55-8p5-7p5-00-8p0-7p0-00-8p0-7p0-5p0-4p0----|
D|---------------------------------------------------------------------------|
A|---------------------------------------------------------------------------|
E|---------------------------------------------------------------------------|

e|-----------------------------------8p5-8p5-----8p5---------8p5-------------|
B|----------------8----8---7---5--8b~---------8p5-----8p5---------8p5--------|
G|2p0-0-2~---->7b---7b---7---7-5--------------------------7p5---------7p5----|
D|---------------------------------------------------------------------------|
A|--------3-0<---------------------------------------------------------------|
E|---------------------------------------------------------------------------|

e|-8p5---------8p5-----8b~-----10--------------------------------------------|
B|-----8p5---------8p5-----13b----15b~------------------7-5-----7hbr5--------|
G|---------7p5------------------------->14~<-->14~<-->7-----7---------7-5~~--|
D|------------------------------------------------------------7--------------|
A|---------------------------------------------------------------------------|
E|---------------------------------------------------------------------------|

this is how i play it. it may not be the 100% correct version, but there may even not be 
such thing, as João Cabeleira often changes lots of sections and

licks live. anyway, this should give you an idea of the key elements upon which you can 
build your own version of the solo ;)

************************************

| ^  tremolo dive and release
| >  tremolo release
| <  tremolo dive
| [] artificial harmonic
|pbr pre-bend release
| pb pre-bend
| hb half bend
| r bend release
| b  Full Bend
| *  Palm Mute
| /  slide up
| \  slide down
| h  hammer-on
| p  pull-off
| ~  vibrato
| +  natural harmonic
| x  Mute note
comments
We did not receive enough feedback on this tab! Please rate:
print report bad tab
1 2 3 4 5
I want to post or [tab]
guest
You may want to rate the tab now too:
select rating
Please do not post tabs as comments. Select "correction" instead!