Oops, an error
Loading. Please wait.

El Baile Y El Salón Bass Tab

version 1
version 1

Whole song

Interactive

3,312 views 6 this week
no commentswrite comment
1 2 3 4 5
please rate
add to favorites
launch autoscroll
font size
0
reset
guitar tuner
Autoscroll
slow
fast
+/-
esc
set tempo
stop
Help us to improve Ultimate-Guitar.com Take our survey!
×
Author
Difficulty
rothot 33
novice
El Baile y El Salon
Re
Cafe Tacvba



Ultimo compas....
(0:36)
G:-----------------------|-------------------------|
D:-----------------------|-------------------------|
A:-----------------------|-------------------------|
E:---5---5---5-5-5-5-0-0-|-5---5---5-5-5-5-0-0-----| x3


G:-----------------------|-------------------------|
D:-----------------------|-------------------------|
A:-----------------------|-------------------------|
E:---7---7---7-7-7-7-0-0-|-4---4---4-4-4-4-0-0-----|


G:-----------------------|-------------------------|
D:-----------------------|-------------------------|
A:-----------------------|-----------------4\------|
E:---5---5---5-5-5-5-0-0-|-5---5---5-5-5-5---------|

Coro

G:-----------------------|-------------------------|
D:-----------------------|-------------------------|
A:----5----5----4----4---|--------------------4----|
E:-----------------------|---5----5----4----0------|


G:-----------------------|-------------------------|
D:-----------------------|-------------------------|
A:---5----5----4----4----|---5----5----7----7---4--|
E:-----------------------|--------------------0----|


G:-----------------------|-------------------------|
D:-----------------------|-------------------------|
A:---5----5----4----4----|--------------------4----|
E:-----------------------|---5----5----4----0------|


G:------------------------|
D:------------------------|
A:---5----5----4----4-----|
E:------------------------|

Que el amor es bailar...

Verso x3

(1:13)
G:-----------------------|-------------------------|
D:-----------------------|-------------------------|
A:-----------------------|-------------------------|
E:---5---5---5-5-5-5-0-0-|-5---5---5-5-5-5-0-0-----| x2


G:-----------------------|-------------------------|
D:-----------------------|-------------------------|
A:-----------------------|-------------------------|
E:---7---7---7-7-7-7-0-0-|-4---4---4-4-4-4-0-0-----|


G:-----------------------|-------------------------|
D:-----------------------|-------------------------|
A:-----------------------|-------------------------|
E:---5---5---5-5-5-5-0-0-|-5---5---5-5-5-5-0-0-----|

Ultima vuelta del verso, salida al coro

G:-----------------------|-------------------------|
D:-----------------------|-------------------------|
A:-----------------------|-----------------4\------|
E:---5---5---5-5-5-5-0-0-|-5---5---5-5-5-5---------|

Coro
(2:04)
G:-----------------------|-------------------------|
D:-----------------------|-------------------------|
A:----5----5----4----4---|--------------------4----|
E:-----------------------|---5----5----4----0------|


G:-----------------------|-------------------------|
D:-----------------------|-------------------------|
A:---5----5----4----4----|---5----5----7----7---4--|
E:-----------------------|--------------------0----|


G:-----------------------|-------------------------|
D:-----------------------|-------------------------|
A:---5----5----4----4----|--------------------4----|
E:-----------------------|---5----5----4----0------|


G:------------------------|
D:------------------------|
A:---5----5----4----4-----|
E:------------------------|

Verso con salida al puente
(2:20)
G:-----------------------|-------------------------|
D:-----------------------|-------------------------|
A:-----------------------|-------------------------|
E:---5---5---5-5-5-5-0-0-|-5---5---5-5-5-5-0-0-----| x2


G:-----------------------|-------------------------|
D:-----------------------|-------------------------|
A:-----------------------|-------------------------|
E:---7---7---7-7-7-7-0-0-|-4---4---4-4-4-4-0-0-----|


G:-----------------------|-------------------------|
D:-----------------------|----7---8---9---10-------|
A:-----------------------|-------------------------|
E:---5---5---5-5-5-5-0-0-|--5---6---7---8----------|

Puente
(2:37)
G:-----6---6---6---6-----|-----7---7---7---7-------|
D:-----------------------|-------------------------|
A:---4---4---4---4-------|---5---5---5---5---------|
E:-----------------------|-------------------------|


G:-----6---6---6---6-----|-----7---7---7---7-------|
D:-----------------------|-------------------------|
A:---4---4---4---4-------|---5---5---5---5---------|
E:-----------------------|-------------------------|


G:-----7---7---7---7-----|-----9---9---9---9-------|
D:-----------------------|-------------------------|
A:---5---5---5---5-------|---7---7---7---7---------|
E:-----------------------|-------------------------|


G:-----------------------|-----6---6---6---6-------|
D:-----7---7---7---6-----|-------------------------|
A:-----------------------|---4---4---4---4---------|
E:---5---5---5---4-------|-------------------------|


G:-----7---7---7---7-----|-----9---9---9---9-------|
D:-----------------------|-------------------------|
A:---5---5---5---5-------|---7---7---7---7---------|
E:-----------------------|-------------------------|


G:-----7---7---7---7-----|-----9---9---9---9-------|
D:-----------------------|-------------------------|
A:---5---5---5---5-------|---7---7---7---7---------|
E:-----------------------|-------------------------|


G:-----9---9---9---9-----|-----7---7---7---7-------|
D:-----------------------|-------------------------|
A:---7---7---7---7-------|---5---5---5---5---------|
E:-----------------------|-------------------------|


G:-----9---9---9---9-----|-------------------------|
D:-----------------------|-----7---7---7---6-------|
A:---7---7---7---7-------|-------------------------|
E:-----------------------|---5---5---5---4---------|


G:-----7---7---7---7-----|-----6---6---6---6-------|
D:-----------------------|-------------------------|
A:---5---5---5---5-------|---4---4---4---4---------|
E:-----------------------|-------------------------|


G:-----------------------|-------------------------|
D:-----------------------|-------------------------|
A:-----------------------|-------------------------|
E:-----------------------|-------------------------|


G:-----------------------|-------------------------|
D:-----------------------|-------------------------|
A:-----------------------|-------------------------|
E:-----------------------|-------------------------|


Silencio 4 compases

Verso x1
(3:29)
G:-----------------------|-------------------------|
D:-----------------------|-------------------------|
A:-----------------------|-------------------------|
E:---5---5---5-5-5-5-0-0-|-5---5---5-5-5-5-0-0-----| x2


G:-----------------------|-------------------------|
D:-----------------------|-------------------------|
A:-----------------------|-------------------------|
E:---7---7---7-7-7-7-0-0-|-4---4---4-4-4-4-0-0-----|


G:-----------------------|-------------------------|
D:-----------------------|-------------------------|
A:-----------------------|-------------------------|
E:---5---5---5-5-5-5-0-0-|-5---5---5-5-5-5-0-0-----|

Coro x2
(3:46)
G:-----------------------|-------------------------|
D:-----------------------|-------------------------|
A:----5----5----4----4---|--------------------4----|
E:-----------------------|---5----5----4----0------|


G:-----------------------|-------------------------|
D:-----------------------|-------------------------|
A:---5----5----4----4----|---5----5----7----7---4--|
E:-----------------------|--------------------0----|


G:-----------------------|-------------------------|
D:-----------------------|-------------------------|
A:---5----5----4----4----|--------------------4----|
E:-----------------------|---5----5----4----0------|


G:------------------------|
D:------------------------|
A:---5----5----4----4-----|
E:------------------------|

Salida
(4:21)
G:-----------------------|-------------------------|
D:-----------------------|-------------------------|
A:-----------------------|-------------------------|
E:---5---5---5-5-5-5-0-0-|-5---5---5-5-5-5-0-0-----| x2


G:-----------------------|-------------------------|
D:-----------------------|-------------------------|
A:-----------------------|-------------------------|
E:---5-------------------|---5---------------------|


G:-----------------------|-------------------------|
D:-----------------------|-------------------------|
A:-----------------------|-------------------------|
E:---5-------------------|---5---------------------|



Al final del puente faltan 4 compases que no he podido sacar, pero lo completare
en cuanto tenga tiempo.

Cualquier comentario por favor comuniquense
berthlem@yahoo.com

Disfruten
Suggest correction new What's this?
You can suggest a correction to this tab. Community and Mods will review your correction and vote to approve or reject it.
comments
We did not receive enough feedback on this tab! Please rate:
print report bad tab
1 2 3 4 5
guest
You may want to rate the tab now too:
select rating
Please do not post tabs as comments. Select "correction" instead!