Oops, an error
Loading. Please wait.

Crack City Rockers Bass

version 1
version 1

Whole song

Interactive

1,518 views 3 this week
1 commentread comment
1 2 3 4 5
x 3
add to favorites
launch autoscroll
font size
0
reset
guitar tuner
×
Best way to learn
"Crack City Rockers"
Autoscroll
slow
fast
+/-
esc
set tempo
stop
-----------------------------------------------------------------------------
			Crack City Rockers - Leftover Crack
-----------------------------------------------------------------------------

Tabbed By : crackdaddycaine
e-mail: crackdaddycaine@hotmail.com


/=slide
>=8 times

intro
G|---------------------------------
B ---------------------------------
A|---5---------------------5/6-----
E|------5--7--2--3/4--5/6----------


punk verse                                lead into ska
G|--------------------------------------I-----------------------------------
D|--------------------------------------I-----------------------------------
A|---5>---------------------5>--1-1-2-2-I----5>---12-10-9-7-----------------
E|------5>--7>--2>--3>--5>--------------I-5>--------------------------------



ska verse
G|--------------------------------
D|----4-------------------4---2---
A|--5--5----4------2----2---4-----
E|--------5---5--3---3------------


ska chorus
G|-------------------------------------------------
D|---7----------------------------------------7----
A|-5---5---7------9------4------5------7----5---5--
E|-------5---5--7---7--2---2--3---3--5---5---------


punk chorus
G|--------------------------
D|--------------------------
A|-5>-----------------------
E|-----3>--5>--7777-5555----


this ones kinda weird so ill put up the order

Order:
Intro
Punk Verse x2
Ska Verse x2
Ska Chorus x1
Punk Chorus x2
Punk Verse x1
Ska Verse x2
Ska chorus x1
Punk Chorus x2
Punk Verse x1
Ska Verse x2
Ska Chorus x1
Punk Chorus x2
Punk Verse x1

im thinkin i got it all, email me if theres big problems
Suggest correction
Give kudos to tab author, rate the tab!
1 2 3 4 5
comments
print report bad tab
1 comment total.
0 reply
GUNS 0F BR1XT0N 35 Nov 12, 2004 07:00 PM

hey its all good except the verse the last part is

G|-------------|
D|-------------|
A|-----6---4---|
E|---7---5-----|

guest
You may want to rate the tab now too:
select rating
Wanna post a correction for this tab? Suggest correction