Oops, an error
Loading. Please wait.

Warrior In Woolworths Bass Tab

520 views 3 this week
no commentswrite comment
1 2 3 4 5
please rate
add to favorites
launch autoscroll
font size
0
reset
guitar tuner
Autoscroll
slow
fast
+/-
esc
set tempo
stop
Help us to improve Ultimate-Guitar.com Take our survey!
×
Author
Intro
G---------------------------|
D---------------------------|x2
A02502502575----------------|
E---------------------------|

Verse1
G------------------|
D------------------|
A5505055050------57|
E----------330305--|

G-------------------|
D-------------------|
A5505055050------4/7|
E----------330305---|

Chorus
G------7---|
D---457-754|x4
A55--------|
E----------|

Intro

Verse2
G-------------------|
D-------------------|
A5505055050------457|
E----------330305---|

G-------------------|
D-------------------|
A5505055050------454|
E----------330305---|

Chorus

Intro

Saxophone Solo 1
G-----------------------|
D-------------------7---|
A5505055050------457-754|
E----------330305-------|

G--------------------|
D--------------------|
A5505055050------5754|
E----------330305----|

Chorus

Intro


Verse 3
G-------------------|
D----------------7--|
A5505055050-------75|
E----------330305---|

G---------------------|
D--------------7------|
A5505055050-457-7-4575|
E----------3-----5----|

Chorus

Saxophone Solo 2
G-------------------|
D----------------7--|
A5505055050-------75|
E----------330305---|

G-----------------------|
D-------------------7---|
A5505055050------457-754|
E----------330305-------|

Chorus

Introx2

im pretty sure the intro is wrong and you have to listen to the song to get the timing
Suggest correction
Give kudos to tab author, rate the tab!
1 2 3 4 5
comments
print report bad tab
guest
You may want to rate the tab now too:
select rating
Wanna post a correction for this tab? Suggest correction