Oops, an error
Loading. Please wait.
We have an official So Long Goodbye tab made by UG professional guitarists. Check out the tab »
×
8,421 views 1 this week
no commentswrite comment
1 2 3 4 5
x 5
add to favorites
×
Save as Personal and add changes to this tab that will be seen only by you. Learn more ›
×
You can save this tab as Personal to edit and correct it or add notes. All changes will be seen only by you. Learn more »
launch autoscroll
font size
0
reset
how to read this tab
guitar tuner
edit
Autoscroll
slow
fast
+/-
esc
set tempo
stop
Author
I thought this song needed a complete tab, so here it is
The numbers in the () means to tap the fret, but it sounds right without it.


Chords used-
(B-Barre)
(S-Sus)

BG- 355433
Am- 002210
G - 320033
C - 032010
ES - 002200 (this chord is used in the chorus, and hammered on to create and A minor)

The song goes like this

-Intro
-Verse 1
-Pre Chorus
-Chorus
-Intro
-Verse 2
-Pre Chorus
-Chorus
-Bridge
-Pre Chorus 2
-Final Chorus-
-Outro


-Intro-

eb|-------------------------------------------------X---3---3----------X----|
Bb|-------------------------------------------------X---3---3----------X--1-|
Gb|---------------5-----------------------------4---X---4---4----------X--2-|
Db|------7--------------(7)/5---------5-------------X---5---5----------X--2-|
Ab|--0-------0--------------------3--------3--------X---5---5---(5)/3--X--0-|
Eb|-------------------------------------------------X---3---3----------X----|

|-------------------------------------------------------------X-X---------3-|
|----------------------------5--------------------------------X-X---------3-|
|---------------------------------------------------------4---X-X---------4-|
|-------------------7--------------(7)/5--------5-------------X-X-----5---5-|
|---(2)/7-------0-------0-------------------3--------3--------X-X---------5-|
|-------------------------------------------------------------X-X--3------3-|

|-X-------------|
|-X---1---------|
|-X---2---------|
|-X---2---------|
|-X---0---------|
|-X-------------|


-Verse 1-

Keep changing your mind like clouds in the sky
Love me when your high, leave me when you cry
I know it all takes time




x3
|----------------------------------------------------X---3---3---------X----|
|----------------------------------------------------X---3---3---------X--1-|
|----------------------5-------------------------4---X---4---4---------X--2-|
|--------------7-----------(7)/5---------5-----------X---5---5---------X--2-|
|--(2)/7---0-------0------------------3-------3------X---5---5--(5)/3--X--0-|
|----------------------------------------------------X---3---3---------X----|

|---------------------|
|-1--1--1--1--1-------|
|-2--2--2--2--2-------|
|-2--2--2--2--2-------|
|-0--0--0--0--0-------|
|---------------------|


-Pre Chorus-

1)

Like a river running dry when the sun's too bright

2)

The rivers from your eyes cant change my mind

x2
|---3--X-X------------------------------------------------------------------|
|---3--X-X--1-------1--1--1--1--1-------------------------------------------|
|---4--X-X--2-------2--2--2--2--2-------------------------------------------|
|---5--X-X--2-------2--2--2--2--2-------------------------------------------|
|---5--X-X--0-------0--0--0--0--0-------------------------------------------|
|---3--X-X------------------------------------------------------------------|

|---------------|
|--1--1---------|
|--2--2---------|
|--2--2---------|
|--0--0---------|
|---------------|


-Chorus-

C   G            BG   Am
So long, this is goodbye
 C           G        BG      Am ES Am
May we meet again in another life
 C      G        BG     Am ES Am
Like strangers passing by
C            G             BG      Am
May we see clearly in a different life


-Verse 2-

Keep dodging lights like a thief in the night
The sun will rise and expose all our lies
So why deny that you and I lead different lives?

x2
|----------------------------------------------------X---3---3---------X----|
|----------------------------------------------------X---3---3---------X--1-|
|----------------------5-------------------------4---X---4---4---------X--2-|
|--------------7-----------(7)/5---------5-----------X---5---5---------X--2-|
|--(2)/7---0-------0------------------3-------3------X---5---5--(5)/3--X--0-|
|----------------------------------------------------X---3---3---------X----|

|----------------------------------------------3---3---------X--------------|
|------------------5---------------3-------3---3---3---------X--1-----------|
|--------------5-------5---(5)/4-------4-------4---4---------X--2-----------|
|----------------------------------------------5---5---------X--2-----------|
|--(2)/7---0-----------------------------------5---5--(5)/3--X--0-----------|
|----------------------------------------------3---3---------X--------------|

|---------------------|
|-1--1--1--1--1-------|
|-2--2--2--2--2-------|
|-2--2--2--2--2-------|
|-0--0--0--0--0-------|
|---------------------|


-Bridge-

|---------------------------------------------------------------------15----|
|-------------------------------------------------------12------------------|
|--------12-9-7-9------------------------12-9-7-9-5-7-9---------------12----|
|-10-9------------10-9-10--------10-9-------------------------10-9----------|
|------10-----------------10----------10---------------------------10-------|
|---------------------------------------------------------------------------|

|-12-10-12--------------------------15-12-10-12-----------3--5--3--5---|
|-----------13-12-13-12-----------------------------------3--5--3--5---|
|--9--7--9--------------------------12--9--7--9---5-7-9---4--5--4--5---|
|-----------10--9-10--9-----10-9--------------------------5--7--5--7---|
|--------------------------------10-----------------------5--7--5--7---|
|---------------------------------------------------------3--5--3--5---|


-Pre Chorus 2-

The rivers from your eyes cant change my mind

|--3--3------------------------------|
|--3--3--------1----1--1--1--1--1----|
|--4--4--------2----2--2--2--2--2----|
|--5--5--5--5--2----2--2--2--2--2----|
|--5--5--5--5--0----0--0--0--0--0----|
|--3--3--3--3------------------------|

|---------------|
|--1--1---------|
|--2--2---------|
|--2--2---------|
|--0--0---------|
|---------------|

-Final Chorus-

After "May we meet again in another life" you play

|-----------------|
|--1/5---3----3/1-|
|--0-----0----0---|
|-----------------|
|-----------------|
|-----------------|

After "Like strangers passing by" you play

|-------------------|
|--1p0---1p0--1p0---|
|--2-----2----2-----|
|--2-----2----2-----|
|--0----------------|
|-------------------|


-Outro-

|----------------------------------------------------X---3---3---------X----|
|----------------------------------------------------X---3---3---------X--1-|
|----------------------5-------------------------4---X---4---4---------X--2-|
|--------------7-----------(7)/5---------5-----------X---5---5---------X--2-|
|--(2)/7---0-------0------------------3-------3------X---5---5--(5)/3--X--0-|
|----------------------------------------------------X---3---3---------X----|

|----------|
|-----1----|
|-----2----|
|-----2----|
|-0--------|
|----------|

|----------------------------------------------------X-------3---X----------|
|----------------------------------------------------X-------3---X---------5|
|----------------------5-------------------------4---X-------4---X-------5--|
|--------------7-----------(7)/5---------5-----------X---5---5---X-----7----|
|--(2)/7---0-------0------------------3-------3------X---5---5---X---7------|
|----------------------------------------------------X---3---3---X-5--------|

            
            
Suggest correction
Creating personal tab
Creating personal tab
You can edit any tab online and save it as your Personal.

You can edit, replace or remove any tab part or add personal notes – all changes will be seen only by you.

Personal tabs can be accessed anytime from any device, even offline.
Learn more »
comments
print report bad tab
guest
You may want to rate the tab now too:
select rating
Wanna post a correction for this tab? Suggest correction