Oops, an error
Loading. Please wait.

The Recipe tab

version 3
version 3

Whole song

Interactive

2,354 views 1 this week
1 commentread comment
1 2 3 4 5
x 3
add to favorites
×
Save as Personal and add changes to this tab that will be seen only by you. Learn more ›
×
You can save this tab as Personal to edit and correct it or add notes. All changes will be seen only by you. Learn more »
launch autoscroll
font size
0
reset
how to read this tab
guitar tuner
edit
Autoscroll
slow
fast
+/-
esc
set tempo
stop
Author
Difficulty
intermediate
Artist:10 Years
Song:Recipe
Album:The Autumn Effect
Tuning: Db Ab Db Gb Bb eb (Drop D, half-step down)

The other tabs are wrong so I thought I'll give it a shot.
SONG ORDER AT BOTTOM!

Intro (Clean + Slight Delay)
Pt.1
eb----------------------------------------------------|
Bb--15-------15-------15-------15---------------------|
Gb-----14-------14-------14-------14------------------|
Db--------12-------12-------12-------12---------------|
Ab----------------------------------------------------|
Db----------------------------------------------------|
Pt.2
eb--13-------13-------13-------13---------------------|
Bb----------------------------------------------------|
Gb-----14-------14-------14-------14------------------|
Db--------12-------12-------12-------12---------------|
Ab----------------------------------------------------|
Db----------------------------------------------------|


Chorus
Pt.1
eb-----------------------------------------------------------|
Bb-----------------------------------------------------------|
Gb-----------------------------------------------------------|
Db--12-12-12-12--12-12-12-12--12-12-12-12--12-12-12-12-------|
Ab--12-12-12-12--12-12-12-12--12-12-12-12--12-12-12-12-------|
Db--12-12-12-12--12-12-12-12--12-12-12-12--12-12-12-12-------|

Pt.2
eb-----------------------------------------------------------|
Bb-----------------------------------------------------------|
Gb-----------------------------------------------------------|
Db--10-10-10-10--10-10-10-10--10-10-10-10--10-10-10-10-------|
Ab--10-10-10-10--10-10-10-10--10-10-10-10--10-10-10-10-------|
Db--10-10-10-10--10-10-10-10--10-10-10-10--10-10-10-10-------|

Pt.3
eb-----------------------------------------------------------|
Bb-----------------------------------------------------------|
Gb-----------------------------------------------------------|
Db--10-10-10-10--10-10-10-10--10-10-10-10--3-3-3-3-3-3-------|
Ab---8--8--8--8---8--8--8--8---8--8--8--8--3-3-3-3-3-3-------|
Db---8--8--8--8---8--8--8--8---8--8--8--8--3-3-3-3-3-3-------|

Pt.4
eb----------------------------------------------------|
Bb----------------------------------------------------|
Gb----------------------------------------------------|
Db--0-0-0-0-0-0-0----0-0-0-0-0-0-0--------------------|
Ab--0-0-0-0-0-0-0----0-0-0-0-0-0-0--------------------|
Db--0-0-0-0-0-0-0----0-0-0-0-0-0-0--------------------|


Verse
eb-------------------------------------------------------------|
Bb----------20-20-20-20-20-20---------18-18-18-18-18-18--------|
Gb----------x--x--x--x--x--x----------x--x--x--x--x--x---------|
Db--0-0-0-0-17-17-17-17-17-17-0-0-0-0-15-15-15-15-15-15--------|
Ab--0-0-0-0-------------------0-0-0-0--------------------------|
Db--0-0-0-0-------------------0-0-0-0--------------------------|
 P.M-------                P.M---------------------------------|

eb-------------------------------------------------------------|
Bb----------17-17-17-17-17-17---------15-15-15-15-15-15--------|
Gb----------x--x--x--x--x--x----------x--x--x--x--x--x---------|
Db--0-0-0-0-14-14-14-14-14-14-0-0-0-0-12-12-12-12-12-12--------|
Ab--0-0-0-0-------------------0-0-0-0--------------------------|
Db--0-0-0-0-------------------0-0-0-0--------------------------|
 P.M-------                P.M---------------------------------|


Bridge
Pt.1
eb----------------------------------------------------|
Bb----------------------------------------------------|
Gb----------------------------------------------------|
Db--0-0-0-0-10-10-10-10----0-0-0-0-12-12-12-12--------|
Ab--0-0-0-0--8--8--8--8----0-0-0-0-10-10-10-10--------|
Db--0-0-0-0--8--8--8--8----0-0-0-0-10-10-10-10--------|

eb----------------------------------------------------|
Bb----------------------------------------------------|
Gb----------------------------------------------------|
Db--0-0-0-0-10-10-10-10----3-3-3-3--------------------|
Ab--0-0-0-0--8--8--8--8----3-3-3-3-----3h5-5----------|
Db--0-0-0-0--8--8--8--8----3-3-3-3-3h5----------------|

Pt.2
eb----------------------------------------------------|
Bb----------------------------------------------------|
Gb----------------------------------------------------|
Db--0-0-0-0--0-0-0-0--0-0-0-0--0-0-0-0----------------|
Ab--0-0-0-0--0-0-0-0--0-0-0-0--0-0-0-0----------------|
Db--0-0-0-0--0-0-0-0--0-0-0-0--0-0-0-0----------------|

eb----------------------------------------------------|
Bb----------------------------------------------------|
Gb-10-10-10-10--10-10-10-10--9-9-9-9--9-9-9-9---0-----|
Db--x--x--x--x---x--x--x--x--x-x-x-x--x-x-x-x---0-----|
Ab--8--8--8--8---8--8--8--8--7-7-7-7--7-7-7-7---0-----|
Db--0--0--0--0---0--0--0--0--0-0-0-0--0-0-0-0---0-----|


Intro x2
Chorus x2 (skip Pt.4 the second time through)
Verse x4
Intro Pt.2
Chorus x2 (again, same as above)
Verse x2
Intro Pt.2
Chorus x2 (again, same as above)
Bridge Pt.1 x2
Bridge Pt.2
Chorus x2 (again, same as above)
Bridge Pt.2

Theres an additional riff played during the chorus, heard on the second time through at 
second half of Pt.2. Not necessary..
Second Guitar Riff
eb----------------------------------------------------|
Bb--18/20-20-20-20-20-20/18-18-18-18-18---------------|
Gb---x/-x--x--x--x--x--x/-x--x--x--x--x---------------|
Db--15/17-17-17-17-17-17/15-15-15-15-15---------------|
Ab----------------------------------------------------|
Db----------------------------------------------------|

            
            
Suggest correction
Creating personal tab
Creating personal tab
You can edit any tab online and save it as your Personal.

You can edit, replace or remove any tab part or add personal notes – all changes will be seen only by you.

Personal tabs can be accessed anytime from any device, even offline.
Learn more »
Give kudos to tab author, rate the tab!
1 2 3 4 5
comments
print report bad tab
1 comment total.
+2 reply
asilay 41 Sep 20, 2007 05:39 PM

for the intro it should be:

eb----------------------------------------------------|
Bb--15---------15---------15---------15---------------|
Gb-----14---------14---------14---------14------------|
Db-------12--12-----12--12-----12--12-----12--12------|
Ab---------12---------12---------12---------12--------|
Db----------------------------------------------------|

and then the same pattern with the 13th on the e.
keep the delay on tho.

guest
You may want to rate the tab now too:
select rating
Wanna post a correction for this tab? Suggest correction