Oops, an error
Loading. Please wait.

Through The Iris tab

version 2
version 2

Whole song

Interactive

17,758 views 3 this week
2 commentsread comments
1 2 3 4 5
x 6
add to favorites
×
Save as Personal and add changes to this tab that will be seen only by you. Learn more ›
×
You can save this tab as Personal to edit and correct it or add notes. All changes will be seen only by you. Learn more »
launch autoscroll
font size
0
reset
how to read this tab
guitar tuner
edit
Autoscroll
slow
fast
+/-
esc
set tempo
stop
10 Years - Through the Iris
The Autumn Effect - Track #8

Great song! Sorry for the length, but it was a lot of the same parts with different
parts at the end or added or whatever - but the song is 100% complete. The timing
between the guitars is pretty close, but not perfect. Guitar 1 is the lead.

TUNING: Drop D; 1/2 step down
        Db Ab Db Gb Bb Eb

Key:  .     = palm mute
      Dist. = Distortion

INTRO 1x
Guitar 1 - Clean                   Hit the distortion here -- v
eb|-----------------------------------------------------------------------|
Bb|-----------------------------------------------------------------------|
Gb|6--6-6-6-6-6-6-6--------9--9-9-----6--6-6-6-6-6-6-6----0---------------|
Db|6--6-6-6-6-6-6-6-0--0-0-9--9-9-----6--6-6-6-6-6-6-6-0--0-0-x-x--x-x-x--|
Ab|4--4-4-4-4-4-4-4-0--0-0-7--7-7-(0)-4--4-4-4-4-4-4-4-0--0-0-x-x--x-x-x--|
Db|4--4-4-4-4-4-4-4-0--0-0-7--7-7-(0)-4--4-4-4-4-4-4-4-0--0-0-x-x--x-x-x--|
                          Guitar 2 comes is with distortion --^

Guitar 1 - Dist.
eb|-----------------------------------------------------------------------|
Bb|-----------------------------------------------------------------------|
Gb|6--6-6-6-6-6-6-6--------9--9-9-----6--6-6-6-6-6-6-6---------9---9---9--|
Db|6--6-6-6-6-6-6-6-0--0-0-9--9-9-----6--6-6-6-6-6-6-6-0--0-0--9---9---9--|
Ab|4--4-4-4-4-4-4-4-0--0-0-7--7-7-(0)-4--4-4-4-4-4-4-4-0--0-0--7---7---7--|
Db|4--4-4-4-4-4-4-4-0--0-0-7--7-7-(0)-4--4-4-4-4-4-4-4-0--0-0--7---7---7--|

Guitar 2 - Dist.
eb|-----------------------------------------------------------------------|
Bb|-----------------------------------------------------------------------|
Gb|----------------------------------------------------14--14-13-13-13-13-|
Db|-THIS PART IS THE SAME AS GUITAR 1 ABOVE------------14--14-14-13-13-13-|
Ab|----------------------------------------------------12--12-12-11-11-11-|
Db|----------------------------------------------------12--12-12-11-11-11-|

VERSE
PART 1
Guitar 1 - Clean
eb|----------------------------------------------------------------------|
Bb|----------------------------------------------------------------------|
Gb|6--6-6-6-6-6-6-6--------9--9-9-----6--6-6-6-6-6-6-6---------9--9--9---|
Db|6--6-6-6-6-6-6-6-0--0-0-9--9-9-----6--6-6-6-6-6-6-6-0--0-0--9--9--9---|
Ab|4--4-4-4-4-4-4-4-0--0-0-7--7-7-(0)-4--4-4-4-4-4-4-4-0--0-0--7--7--7---|
Db|4--4-4-4-4-4-4-4-0--0-0-7--7-7-(0)-4--4-4-4-4-4-4-4-0--0-0--7--7--7---|

eb|-----------------------------------------------------------------------|
Bb|-----------------------------------------------------------------------|
Gb|6--6-6-6-6-6-6-6--------9--9-9-----6--6-6-6-6-6-6-6--------------------|
Db|6--6-6-6-6-6-6-6-0--0-0-9--9-9-----6--6-6-6-6-6-6-6-0--0-0-x-x--x-x-x--|
Ab|4--4-4-4-4-4-4-4-0--0-0-7--7-7-(0)-4--4-4-4-4-4-4-4-0--0-0-x-x--x-x-x--|
Db|4--4-4-4-4-4-4-4-0--0-0-7--7-7-(0)-4--4-4-4-4-4-4-4-0--0-0-x-x--x-x-x--|
                                Put on the distortion here ---^

VERSE
Part 2
Guitar 1 - Dist.
eb|----------------------------------------------------------------------|
Bb|----------------------------------------------------------------------|
Gb|6--6-6-6-6-6-6-6--------9--9-9-----6--6-6-6-6-6-6-6---------9--9--9---|
Db|6--6-6-6-6-6-6-6-0--0-0-9--9-9-----6--6-6-6-6-6-6-6-0--0-0--9--9--9---|
Ab|4--4-4-4-4-4-4-4-0--0-0-7--7-7-(0)-4--4-4-4-4-4-4-4-0--0-0--7--7--7---|
Db|4--4-4-4-4-4-4-4-0--0-0-7--7-7-(0)-4--4-4-4-4-4-4-4-0--0-0--7--7--7---|

Guitar 2 - Dist.
eb|----------------------------------------------------------------------|
Bb|----------------------------------------------------------------------|
Gb|6--6-6-6-6-6-6-6--------9--9-9-----6--6-6-6-6-6-6-6-14-14-14-13-13-13-|
Db|6--6-6-6-6-6-6-6-0--0-0-9--9-9-----6--6-6-6-6-6-6-6-14-14-14-13-13-13-|
Ab|4--4-4-4-4-4-4-4-0--0-0-7--7-7-(0)-4--4-4-4-4-4-4-4-12-12-12-11-11-11-|
Db|4--4-4-4-4-4-4-4-0--0-0-7--7-7-(0)-4--4-4-4-4-4-4-4-12-12-12-11-11-11-|

PRE-CHORUS
Guitar 1
eb|-----------------------|
Bb|-----------------------|
Gb|-----------------------|
Db|2----------------------|
Ab|2-19x------------------|
Db|2----------------------|

Guitar 2
eb|-----------------------|
Bb|-----------------------|
Gb|9----------------------|
Db|9----------------------|
Ab|7-19x------------------|
Db|7----------------------|

CHORUS
Part 1
Guitar 1 - Dist.
eb|----------------------------------------------------|
Bb|----------------------------------------------------|
Gb|-------------------6--------------------------------|
Db|-7-6---7-6---7-6---------7-6---7-6---7-6------------|
Ab|-----9-----7-----7-----------9-----7-----7--7h9-----|
Db|----------------------------------------------------|

Guitar 2 - Dist.
Each chord is strummed a few times each.
eb|-----------------------------------------------|
Bb|-----------------------------------------------|
Gb|-----------------------------------------------|
Db|4------7-----0-----2---4-----7----0----2-------|
Ab|4------7-----0-----2---4-----7----0----2-------|
Db|4------7-----0-----2---4-----7----0----2-------|

CHORUS  
Part 2
Guitar 1
eb|-----------------------------------------------------------|
Bb|-----------------------------------------------------------|
Gb|-------------------6---6b--------11------1111111--9-9-9-9--|
Db|-7-6---7-6---7-6------------9-9--11------1111111--9-9-9-9--|
Ab|-----9-----7-----7---------------9--12x--9-9-9-9--7-7-7-7--|
Db|---------------------------------9-------9-9-9-9--7-7-7-7--|

Guitar 2
Each chord is strummed a few times each.
eb|-----------------------------------------------------------|
Bb|-----------------------------------------------------------|
Gb|---------------------------------11------1111111--9-9-9-9--|
Db|4------7-----0-----2----4----7---11------1111111--9-9-9-9--|
Ab|4------7-----0-----2----4----7---9--12x--9-9-9-9--7-7-7-7--|
Db|4------7-----0-----2----4----7---9-------9-9-9-9--7-7-7-7--|

VERSE
Part 1A
Guitar 1 - Clean
eb|----------------------------------------------------------------------|
Bb|----------------------------------------------------------------------|
Gb|6--6-6-6-6-6-6-6--------9--9-9-----6--6-6-6-6-6-6-6---------9--9--9---|
Db|6--6-6-6-6-6-6-6-0--0-0-9--9-9-----6--6-6-6-6-6-6-6-0--0-0--9--9--9---|
Ab|4--4-4-4-4-4-4-4-0--0-0-7--7-7-(0)-4--4-4-4-4-4-4-4-0--0-0--7--7--7---|
Db|4--4-4-4-4-4-4-4-0--0-0-7--7-7-(0)-4--4-4-4-4-4-4-4-0--0-0--7--7--7---|

VERSE 
Part 1B
Guitar 1
eb|-----------------------------------------------------------------------|
Bb|-----------------------------------------------------------------------|
Gb|6--6-6-6-6-6-6-6--------9--9-9-----6--6-6-6-6-6-6-6--------------------|
Db|6--6-6-6-6-6-6-6-0--0-0-9--9-9-----6--6-6-6-6-6-6-6-0--0-0-x-x--x-x-x--|
Ab|4--4-4-4-4-4-4-4-0--0-0-7--7-7-(0)-4--4-4-4-4-4-4-4-0--0-0-x-x--x-x-x--|
Db|4--4-4-4-4-4-4-4-0--0-0-7--7-7-(0)-4--4-4-4-4-4-4-4-0--0-0-x-x--x-x-x--|
                                Put on the distortion here ---^
Guitar 2 Fill
eb|-------------------------------|
Bb|----7---9---7---10--9--7-------|
Gb|6------------------------9--6--|
Db|-------------------------------|
Ab|-------------------------------|
Db|-------------------------------|

Guitar 1 - Dist.
eb|----------------------------------------------------------------------|
Bb|----------------------------------------------------------------------|
Gb|6--6-6-6-6-6-6-6--------9--9-9-----6--6-6-6-6-6-6-6---------9--9--9---|
Db|6--6-6-6-6-6-6-6-0--0-0-9--9-9-----6--6-6-6-6-6-6-6-0--0-0--9--9--9---|
Ab|4--4-4-4-4-4-4-4-0--0-0-7--7-7-(0)-4--4-4-4-4-4-4-4-0--0-0--7--7--7---|
Db|4--4-4-4-4-4-4-4-0--0-0-7--7-7-(0)-4--4-4-4-4-4-4-4-0--0-0--7--7--7---|

Guitar 2
eb|----------------------------------------------------------------------|
Bb|----------------------------------------------------------------------|
Gb|6--6-6-6-6-6-6-6--------9--9-9-----6--6-6-6-6-6-6-6-14-14-14-13-13-13-|
Db|6--6-6-6-6-6-6-6-0--0-0-9--9-9-----6--6-6-6-6-6-6-6-14-14-14-13-13-13-|
Ab|4--4-4-4-4-4-4-4-0--0-0-7--7-7-(0)-4--4-4-4-4-4-4-4-12-12-12-11-11-11-|
Db|4--4-4-4-4-4-4-4-0--0-0-7--7-7-(0)-4--4-4-4-4-4-4-4-12-12-12-11-11-11-|

PRE-CHORUS
CHORUS Part 1 and 2  

INTERLUDE   1x
I've squeezed everything tight here; The timing is not exact here.
Guitar 1 - Dist.                                 . . . .  . . . .
eb|----------------------------------------------------------------|
Bb|--7-9-7-10-9-7---------------------7---7------------------------|
Gb|6--------------9-6--11111111--9999---9---6----11111111-9-9-9-9--|
Db|--------------------11111111--9999------------11111111-9-9-9-9--|
Ab|--------------------9-9-9-9---7777------------9-9-9-9--7-7-7-7--|
Db|--------------------9-9-9-9---7777------------9-9-9-9--7-7-7-7--|

Guitar 2 - Dist.                                 . . . . . . . .
eb|----------------------------------------------------------------|
Bb|----------------------------------------------------------------|
Gb|--------------------11111111--9999------------1111111-9-9-9-9---|
Db|44444-777-555-44444-11111111--9999--4-4-4-4---1111111-9-9-9-9---|
Ab|44444-777-555-44444-9-9-9-9---7777--4-4-4-4---9-9-9-9-7-7-7-7---|
Db|44444-777-555-44444-9-9-9-9---7777--4-4-4-4---9-9-9-9-7-7-7-7---|

POST INTERLUDE
Guitar 1
  [ c l e a n][d i s t o r t i o n]
eb|-----------------------------------|
Bb|-----------------------------------|
Gb|6-66-6-6-6-14--14-14--13--13-13----|
Db|6-66-6-6-6-x---x--x---x---x---x----|
Ab|4-44-4-4-4-12--12-12--11--11-11----|
Db|4-44-4-4-4-------------------------|
 
Guitar 2
eb|-----------------------------------|
Bb|-----------------------------------|
Gb|----------------------9---9--9-----|
Db|-----------0---0--0---9---9--9-----|
Ab|-----------0---0--0---7---7--7-----|
Db|-----------0---0--0---7---7--7-----|

CHORUS - Part 1

CHORUS
Part 2
Guitar 1
eb|------------------------------------------|
Bb|------------------------------------------|
Gb|-------------------6-------------11-------|
Db|-7-6---7-6---7-6------------9----11-------|
Ab|-----9-----7-----7---------------9--12x---|
Db|---------------------------------9--------|

Guitar 2
Each chord is strummed a few times each.
eb|------------------------------------------|
Bb|------------------------------------------|
Gb|---------------------------------11-------|
Db|4------7-----0-----2---4-----7---11-------|
Ab|4------7-----0-----2---4-----7---9--12x---|
Db|4------7-----0-----2---4-----7---9--------|

CHORUS Part 1

CHORUS Continued
Guitar 1
eb|-----------------------------------------------------------|
Bb|-----------------------------------------------------------|
Gb|-------------------6-------------11------1111111--9-9-9-9--|
Db|-7-6---7-6---7-6------------9----11------1111111--9-9-9-9--|
Ab|-----9-----7-----7---------------9--12x--9-9-9-9--7-7-7-7--|
Db|---------------------------------9-------9-9-9-9--7-7-7-7--|

Guitar 2
Each chord is strummed a few times each.
eb|-----------------------------------------------------------|
Bb|-----------------------------------------------------------|
Gb|---------------------------------11------1111111--9-9-9-9--|
Db|4------7-----0-----2---4-----7---11------1111111--9-9-9-9--|
Ab|4------7-----0-----2---4-----7---9--12x--9-9-9-9--7-7-7-7--|
Db|4------7-----0-----2---4-----7---9-------9-9-9-9--7-7-7-7--|

Guitar 1
  [  clean   ][ d i s t o r t i o n--------> ]
eb|------------------------------------------|
Bb|------------------------------------------|
Gb|6-66-6-6-6-14--14-14--13--13-13---6--6--6-|
Db|6-66-6-6-6-14--14-14--13--13-13---6--6--6-|
Ab|4-44-4-4-4-12--12-12--11--11-11---4--4--4-|
Db|4-44-4-4-4-12--12-12--11--11-11---4--4--4-|
              ^
Guitar 2 comes in here with dist.

            
            
Suggest correction
Creating personal tab
Creating personal tab
You can edit any tab online and save it as your Personal.

You can edit, replace or remove any tab part or add personal notes – all changes will be seen only by you.

Personal tabs can be accessed anytime from any device, even offline.
Learn more »
comments
print report bad tab
2 comments total.
+1 reply
Kortez3000 40 Aug 23, 2008 07:30 PM

Nice tab I played it and it sound perfect

0 reply
jaguarfm51 10 Oct 11, 2011 04:41 PM

Pretty spot on, took me a while to look past the tuning that said Drop D and realized it was C# tuning... but that's me being stupid, perfect tabs.

guest
You may want to rate the tab now too:
select rating
Wanna post a correction for this tab? Suggest correction