Oops, an error
Loading. Please wait.

Xtc Overdrive bass

501 views 1 this week
no commentswrite comment
1 2 3 4 5
2 more votes to show rating
add to favorites
×
Save as Personal and add changes to this tab that will be seen only by you. Learn more ›
×
You can save this tab as Personal to edit and correct it or add notes. All changes will be seen only by you. Learn more »
launch autoscroll
font size
0
reset
guitar tuner
edit
Autoscroll
slow
fast
+/-
esc
set tempo
stop
Crashdiet - XTC Overdrive (The Unattractive Revolution)

D tuning/ 1 step down/ DGCF

Intro:

G-------------------------------------------------|
D-------------------------------------------------|
A--------3-----------------------3----------------|
E--1--1----3---1--1--1-3---1--1----3---1--1--1-3--| 

Vers:

   XTC OVERDRIVE Prowling til' end of time, hey Lotta women on the line
G------------------------------------------------------------------------|
D------------------------------------------------------------------------|
A--------------1------------------1------------3--3--------------1-------|
E--3--3--1-2-3----3---3--3--1-2-3----3---1--1--------3--3--1-2-3----3----|

Pre-Chorus:

Gotta love whatcha doin' here Cross the line til' you get yer share
G--------------------------------------------------------------------|
D--------------------------------------------------------------------|
A-------------------3------------------------------------------------|
E--1---1---1---1--------3-------1---1---1---1---1---1---1-----3------|

You paid the price but it ain't that fair
G-----------------------------------------------------------|
D-----------------------------------------------------------|
A-------------------------------3----------6--6--6-6--8--8--|
E--1---1---1---1---1---1-----------3------------------------|

Chorus:

  Blasting out all our vibes We are the future tribe
G-----------------------------------------------------|
D-----------------------------------------------------|
A-----------------------------------------------------|
E--3--3-3-3--3-3-3--3-3--3---3--3-3-3--3-3-3--3-3--3--|

  A ray of light flashing in yer eyez
G--------------------------------------|
D--------------------------------------|
A--6--6---1--1---------------3-3--1-1--|
E------------------1--1----------------|

  Passion of antichrist Bursting in flames tonight
G-----------------------------------------------------|
D-----------------------------------------------------|
A-----------------------------------------------------|
E--3--3-3-3--3-3-3--3-3--3---3--3-3-3--3-3-3--3-3--3--|

  A way of life pissing on yer lies
G-------------------------------------|
D-------------------------------------|
A--6--6---1--1------------------------|
E------------------1--1--------1-1----|

Solo backing:

G-------------------------|
D-------------------------|
A-------------------3-----|
E--5--5--5-5--3-4-5----5--| x4

G-------------------------|
D-------------------------|
A-------------------6-----|
E--8--8--8-8--6-7-8----8--| x3

then:
G-------------------|
D-------------------|
A--5--5--5--5-------|
E---------------3---|


Bridge:

G---------------------------------------------------------|
D---------------------------------------------------------|
A------1--------------1--------------1---------3----------|
E--1-3---3-1-3----1-3---3-1-3----1-3---3-1-3-----0-1-2----|

            
            
Suggest correction
Creating personal tab
Creating personal tab
You can edit any tab online and save it as your Personal.

You can edit, replace or remove any tab part or add personal notes – all changes will be seen only by you.

Personal tabs can be accessed anytime from any device, even offline.
Learn more »
Give kudos to tab author, rate the tab!
1 2 3 4 5
comments
print report bad tab
guest
You may want to rate the tab now too:
select rating
Wanna post a correction for this tab? Suggest correction