Oops, an error
Loading. Please wait.

A Fact About Sneakers Tab

210 views 1 this week
no commentswrite comment
1 2 3 4 5
please rate
add to favorites
launch autoscroll
font size
0
reset
how to read this tab
guitar tuner
Tab Pro tools
  • play this tab
  • loop segment
  • change instrument
  • show fretboard
  • metronome
×
Best way to learn
"A Fact About Sneakers"
Autoscroll
slow
fast
+/-
esc
set tempo
stop
Contributor
Difficulty
novice
-----------------------------------------------------------------------------
                          A Fact About Sneakers - BOC
-----------------------------------------------------------------------------

Tabbed by: stonegolem13
Album: Blue Oyster Cult
Tuning: Standard (EADGBe)

Chord Sequences, play whichever way is easiest.  I find that using normal
chords (i.e. not barred) up until C# works for me.

Seq 1:
D F C E C# D B

Seq 2:
B C# D C#5

Chorus:
e|----5-----5-----7-----7--|---7---------3----7---------3-|
B|---6-3---6-3---8-6---8-6-|--8-6--6-5-3-----8-6--6-5-3---|
G|--5-----5-----7-----7----|-7--------------7-------------|
D|-------------------------|------------------------------|
A|-------------------------|------------------------------|
E|-------------------------|------------------------------|
                            ^------Repeat this bit-------^

Following the chorus, strum a D chord several time (preferably barred at
the 10th Fret) and solo in the key of D minor.

Pre-Verse:
e|-------------------------|------------------------------|
B|-------------------------|------------------------------|
G|-------------------------|------------------------------|
D|-------------------------|------------------------------|
A|--5-8-7\-3-5-0-5-8-7\-3-5|-0-5-8-7\-3-5-0-5-8-7\-3/5\---|
E|-------------------------|------------------------------|

Structure:
Seq 1
Seq 1 (faster)
Seq 2
Chorus
Interlude
Pre-Verse
Seq 1
Seq 1 (faster)
Seq 2
Chorus
Interlude
Pre-Verse
Seq 1
Seq 1
Seq 1 (faster)

************************************
|              Legend              |
************************************
|                                  |
| /   slide up                     |
| \   slide down                   |
| h   hammer-on                    |
| p   pull-off                     |
| ~   vibrato                      |
| x   Mute note                    |
| b   Bend                         |
| pb  Pre-bend                     |
| br  Bend release                 |
| pbr Pre-bend release             |
| brb Bend release bend            |
| ()  ghost/hold                   |
|                                  |
************************************

Any suggestions for improvements, feel free to comment and/or PM me.  Enjoy!
comments
We did not receive enough feedback on this tab! Please rate:
print report bad tab
1 2 3 4 5
I want to post or [tab]
guest
You may want to rate the tab now too:
select rating
Please do not post tabs as comments. Select "correction" instead!