Oops, an error
Loading. Please wait.

Three Little Pigs bass

version 1
version 1

Whole song

Interactive

1,336 views 1 this week
no commentswrite comment
1 2 3 4 5
3 more votes to show rating
add to favorites
×
Save as Personal and add changes to this tab that will be seen only by you. Learn more ›
×
You can save this tab as Personal to edit and correct it or add notes. All changes will be seen only by you. Learn more »
launch autoscroll
font size
0
reset
guitar tuner
edit
Autoscroll
slow
fast
+/-
esc
set tempo
stop
Author
Difficulty
-----------------------------------------------------------------------------
			     Three Little Pigs - Green Jello
-----------------------------------------------------------------------------

Tabbed By : Spencer H
e-mail: HoskinsS95@gmail.com

Tried playing this with the only tab on this site, and it sounded way off, so I played 
around with this song a bit after looking at the six-string tabs, and this is what I came 
up with. Also my first tab, so keep that in mind. :D

Tuning: Standard (EADG)

Intro
0:22 "And a big, bad, wolf!"

G|-------------------------------------------------------------------------|
D|-------------------------------------------------------------------------|
A|-------------------------------------------------------------------------|
E|--------------------------------------------2----1-----0-----------------|


**[NOTICE: You'll be playing the Verse/Main Riff and Chorus/2nd Riff for most of the song,
except where noted.]**

Verse/Main Riff (x13)

G|---------------------------------------------------------------------|
D|---------------------------------------------------------------------|
A|----------0----3-----------------3h4p3--0--3-------------------------|
E|---2-----------------------------------------------------------------|

**Only rest for the first (1:13-1:16, 1:20-1:22) and fourth (4:55-4:58, 5:02-5:05) time
"Not by the hair of my chiny chin chin!" come up.

DO NOT rest the second (2:13-2:16, 2:20-2:22)
and third (3:13-3:16, 3:19-3:22) time this comes up.**



Main Riff again
G|---------------------------------------------------------------------|
D|---------------------------------------------------------------------|
A|-----------0----3-----------------3h4p3--0--3------------------------|
E|---2-----------------------------------------------------------------|

Chorus/2nd Riff
G|-------------------------------------------------------|
D|-------------------------------------------------------|
A|-------------------------------------------------------|
E|-2222222222222222-----3333333333333333-----------------|

G|-------------------------------------------------------|
D|-------------------------------------------------------|
A|-------------------------------------------------------|
E|-4444444444444444-----5555555555555555-----------------|

Repeat these two riffs like the rest of the song
until you rest at the short guitar riff at 2:36-2:43 (After the second pig verse)


Then back to the regular two riffs at 2:44 "Third little piggie.."


**Weird out-of-tune part (3:36-3:42) after Third little pig Verse**

G|----------------------------------------------------------------------------------|
D|----------------------------------------------------------------------------------|
A|-----------1-------------------------------------------------1--------------------|
E|-0---2----------------1h2--0--1----------------0---1-----------------2---1---0----|

Back to regular two riffs again at 3:43

**Pause at 4:20-4:38 for EPIC MACHINE GUN SNARE SOLO/crashing**

Back to the regular two riffs (4:38)

2nd Riff/Outro (5:05-5:30)
G|-------------------------------------------------------|
D|-------------------------------------------------------|
A|-------------------------------------------------------|
E|-2222222222222222-----3333333333333333-----------------|

G|-------------------------------------------------------|
D|-------------------------------------------------------|
A|-------------------------------------------------------|
E|-4444444444444444-----5555555555555555-----------------|

G|-------------------------------------------------------|
D|-------------------------------------------------------|
A|-------------------------------------------------------|
E|-6666666666666666-----7777777777777777-----------------|

G|-------------------------------------------------------|
D|-------------------------------------------------------|
A|-------------------------------------------------------|
E|-8888888888888888-----9999999999999999-----------------|

"And the moral of the story is..."
G|----------------------------------------------------------------------------|
D|----------------------------------------------------------------------------|
A|---------0----3-------------------------------------------------------------|
E|--2---------------------------------------------------------------3-------0-|
Suggest correction
Creating personal tab
Creating personal tab
You can edit any tab online and save it as your Personal.

You can edit, replace or remove any tab part or add personal notes – all changes will be seen only by you.

Personal tabs can be accessed anytime from any device, even offline.
Learn more »
Give kudos to tab author, rate the tab!
1 2 3 4 5
comments
print report bad tab
guest
You may want to rate the tab now too:
select rating
Wanna post a correction for this tab? Suggest correction