Oops, an error
Loading. Please wait.

La Vereda De La Puerta De Atrás tab

version 1
version 1

Whole song

Interactive

10,134 views 39 this week
no commentswrite comment
1 2 3 4 5
1 last vote to show rating
add to favorites
×
Save as Personal and add changes to this tab that will be seen only by you. Learn more ›
×
You can save this tab as Personal to edit and correct it or add notes. All changes will be seen only by you. Learn more »
launch autoscroll
font size
0
reset
how to read this tab
guitar tuner
edit
Autoscroll
slow
fast
+/-
esc
set tempo
stop
Author
Difficulty
Hola a todos, esta es la primera tablatura que hago y espero que este bien.
Como muchas de las canciones de extremoduro, esta tambien tiene cejilla en el primer traste.
REPITO CEJILLA EN EL PRIMER TRASTE SINO NO SUENA IGUAL


Punteo intro:
-
F ||--------------------------------------------------------------------|
C ||------------------------------------------------------------0-1-0---|
Ab||-------------------------------------------0-2-2-0-0----0-2---------|
Eb||-----------------------------------0---0-2-----------2--------------|
Bb||--0-2-3--3-2--2-0--2-------0---2-3---3------------------------------|
F ||---------------------3-0-3------------------------------------------|
-
f ||--------------------------------------------------------------------|
c ||----0-------------------------------------------------------1x-1-3b-|
Ab||--2---0-----------------------------------------0x----0x-2x---------|
Eb||--------2-1---0----------------------------0-2x----2x---------------|
Bb||------------3---2------------0-2-3--3-2--3--------------------------|
F ||--------------------------------------------------------------------|

f ||--------------------------------3-------------------|
c ||-1-3-3-1-0----------0-1-3-1-3/5---5h3h1-3h1---3-1---|
Ab||-----------2-0--0-2-------------------------2-----2-|
Eb||----------------------------------------------------|
Bb||----------------------------------------------------|
F ||----------------------------------------------------|

f ||--3/5-3---3-1------------------||
c ||-------5-----5~~3-5^5^-3-1-3-0-||
Ab||-------------------------------||
Eb||-------------------------------||
Bb||-------------------------------||
F ||-------------------------------||


Acordes Intro: mientras suean el puntero

Fill 1
e||-------------------------------------------------------|--------||
B||-------------------------------------------------------|--------||
G||-------------------------------------------------------|----10--||x2
D||--2-4-5--5-4--4-2--4-2--2/4\2---2-4-5xx-7xx-9-7-5-4-2--|--9-----||
A||--2-4-5--5-4--4-2--4-2--2/4\2---2-4-5xx-7xx-9-7-5-4-2--|--------||
E||--0-2-3--3-2--2-0--2-0--0/2\0---0-2-3xx-5xx-7-5-3-2-0--|--------||



Fill 1
     Lam
Si no fuera
      Sol       Fa
porque hice colocado

     Sol          Lam
el camino de tu espera
      Sol         Fa
me habría desconectado
Sol  Lam      Sol          Fa
condenado a mirarte desde fuera
    Sol          Lam     Sol Fa Sol
y dejar que te tocara el sol.

Fill 1

     Lam
Y si fuera
   Sol          Fa
mi vida una escalera
    Sol          Lam
me la he pasado entera
   Sol             Fa
buscando el siguiente escalón
Sol   Lam         Sol        Fa
convencido que estás en el tejado
    Sol            Lam   Sol Fa Sol
esperando a ver si llego yo.

Estribillo:Y dejar de lado....
-----------------------------------------------------------------------------||
f ||----------3--------------------0---------------------2-----------0-------||
c ||----------3--------------------0---------------------3-----------1-------||
Ab||----------0--------------------0------------------4-----------0----------||
Eb||------0---------------------2------------------4-----------2-------------||
Bb||---2---------------------2------------------2-----------3----------------||
F ||--3------------------0---------------------------------------------------||

      Do                   Lam                    Mim
Y dejar de lado la vereda de la puerta de atrás
       Fa
por donde te vi pasar
   Do                    Lam                         Mim
como una regadera que la hierba hace que vuelva a brotar
        Fa
y ahora todo es campo ya.

       Lam
Sus soldados
    Sol         Fa
son flores de madera
      Sol        Lam
y mi ejercito no tiene
   Sol             Fa
bandera es sólo un corazón
Sol  Lam      Sol         Fa
condenado a vivir entre malezas
   Sol            Lam   Sol Fa Sol
sembrando flores de algodón.

Fill 1

        Lam
Si me espera
   Sol           Fa
la muerte traicionera
    Sol         Lam
y antes de repartirme
    Sol            Fa
del todo me veo en un cajón
Sol      Lam         Sol          Fa
que me entierren con la picha por fuera
    Sol          Lam     Sol Fa Sol
pa' que se la coma un ratón.

Estribillo:
  Do                        Lam                Mim
Y muere a todas horas gente dentro de mi televisor
           Fa
quiero oir alguna canción
     Do                       Lam                    Mim
que no hable de sandeces y que diga que NO sobra el amor
        Fa
y que empiece en SI y no en no.
Do                   Lam                    Mim
Y dejar de lado la vereda de la puerta de atrás
       Fa
por donde te vi marchar
   Do                    Lam                         Mim
como una regadera que la hierba hace que vuelva a brotar
        Fa
y ahora todo es campo ya.


Cambio: cogiendo velocidad
-------
Guitarra 1
Riff
f ||--------------------------------------------------------||
c ||--------------------------------------------------------||
Ab||0-0-0-0-0-5-4-0-0-0----------0-0-0-0-0-5-4-0-0-0--------||x8
Eb||---------------------3-2-2------------------------3-2-3-||
Bb||--------------------------------------------------------||
F ||--------------------------------------------------------||

Guitarra 2(se mete cuando la guitarra 1 ha hecho el riff una vez)cogiendo velocidad

f ||--------------------------------------------------------||
c ||1-1-1-1-1-5-3-0-0-0----------1-1-1-1-1-5-3-0-0-0--------||
Ab||---------------------2-0-0------------------------2-0-2-||x7
Eb||--------------------------------------------------------||
Bb||--------------------------------------------------------||
F ||--------------------------------------------------------||


f ||-----------------------------------------------------||
c ||-----------------------------------------------------||
Ab||--------------------------5--5-----------------------||
Eb||--2--2--------------------5--5-----------------5--5--||
Bb||--2--2--------------------3--3-----------------5--5--||
F ||--0--0-----------------------------------------3--3--||
Dices que a veces no comprendes que dice mi voz .

f ||-----------------------------------------------------||
c ||-----------------------------------------------------||
Ab||------------------------7--7-------------------------||
Eb||------------------------7--7-------------------------||
Bb||------------------------5--5-------------------------||
F ||-----------------------------------------------------||
 ¿Como quieres que este dentro de tu ombligo?

f ||-----------------------------------------------------||
c ||-----------------------------------------------------||
Ab||-----------------------------5--5--------------------||
Eb||--2--2-----------------------5--5--------------5--5--||
Bb||--2--2-----------------------3--3--------------5--5--||
F ||--0--0-----------------------------------------3--3--||
      Si entre los dedos se me escapa volando una flor

f ||--------------------------------------------------||
c ||--------------------------------------------------||
Ab||---------------------7--7-------------------------||
Eb||---------------------7--7-------------------------||
Bb||---------------------5--5-------------------------||
F ||--------------------------------------------------||
    y ella solita va marcando el camino.

Y luego para acabar el riff de antes, esta vez las dos guitarras empiezan juntas.

 Guitarra 1(disminuyendo velocidad)
f ||--------------------------------------------------------||
c ||--------------------------------------------------------||
Ab||0-0-0-0-0-5-4-0-0-0----------0-0-0-0-0-5-4-0-0-0--------||x3
Eb||---------------------3-2-2------------------------3-2-3-||
Bb||--------------------------------------------------------||
F ||--------------------------------------------------------||

 Guitarra 2(cogiendo velocidad)
f ||----------------------------------------------------------||
c ||--1-1-1-1-1-5-3-0-0-0----------1-1-1-1-1-5-3-0-0-0--------||
Ab||-----------------------2-0-0------------------------2-0-2-||x3
Eb||----------------------------------------------------------||
Bb||----------------------------------------------------------||
F ||----------------------------------------------------------||

Final

Guitarra 1
f ||--/18-20-21---14-16-18------------------------------------||
c ||------------------------14-16-----------------------------||
Ab||----------------------------------------------------------||
Eb||----------------------------------------------------------||
Bb||----------------------------------------------------------||
F ||----------------------------------------------------------||

Guitarra 2
f ||---------------------------3------------------------------||
c ||---------------------------3------------------------------||
Ab||--7-9-10-7-3-5-7-3---------4------------------------------||
Eb||-------------------3h5h3h5-3------------------------------||
Bb||---------------------------5------------------------------||
F ||---------------------------3------------------------------||

Leyenda:
/ = Slide
h = hammer
x = solo mantener el dedo encima y tocar(no obliagatorio pero le da un toqueespecial)
~ = vibrator
^ = Bending

Creo que me lo eh currado para ser mi primera tab, qeu lo disfruten
By Drawork

            
            
Suggest correction
Creating personal tab
Creating personal tab
You can edit any tab online and save it as your Personal.

You can edit, replace or remove any tab part or add personal notes – all changes will be seen only by you.

Personal tabs can be accessed anytime from any device, even offline.
Learn more »
Give kudos to tab author, rate the tab!
1 2 3 4 5
comments
print report bad tab
guest
You may want to rate the tab now too:
select rating
Wanna post a correction for this tab? Suggest correction