Oops, an error
Loading. Please wait.

Un Millón De Años Luz bass

version 1
version 1

Whole song

Interactive

2,538 views 27 this week
no commentswrite comment
1 2 3 4 5
3 more votes to show rating
add to favorites
×
Save as Personal and add changes to this tab that will be seen only by you. Learn more ›
×
You can save this tab as Personal to edit and correct it or add notes. All changes will be seen only by you. Learn more »
launch autoscroll
font size
0
reset
guitar tuner
edit
Autoscroll
slow
fast
+/-
esc
set tempo
stop
Author
Difficulty
Legend
L - tied note
s - slide


G |-------|-------|-------|-------|-------|-------|-------|
D |-------|-------|-------|-------|-------|-------|-------|
A |-------|-------|-------|-------|-------|-------|-------|
E |-------|-------|-------|-------|-------|-------|-------|


----------------------------|
----------------------------|
----------------------------|
-----------------------15s--|


----------------------------------------------------|
----------------------------------------------------|
----------------------------------------------------|
--7-----7L----------7--7--5-----5L----------5--5----|


----------------------------------------------------|
----------------------------------------------------|
----------------------------------------------------|
--4-----4L----------4--4--2-----2L----------2--2----|


----------------------------------------------------|
----------------------------------------------------|
----------------------------------------------------|
--7-----7L----------7--7--5-----5L----------5--5----|


----------------------------------------------------|
----------------------------------------------------|
----------------------------------------------------|
--4-----4L----------4--4--2-----2L----------2--2----|


----------------------------------------------------|
----------------------------------------------------|
----------------------------------------------------|
--7-----------7-----7-----5-----5L----------5--5----|


----------------------------------------------------|
----------------------------------------------------|
----------------------------------------------------|
--4-----4L----------4--4--2-----2L----------2--2----|


----------------------------------------------------|
----------------------------------------------------|
----------------------------------------------------|
--7-----------7-----7-----5-----5L----------5--5----|


----------------------------------------------------|
----------------------------------------------------|
----------------------------------------------------|
--4-----4L----------4--4--2-----2L----------2--2----|


----------------------------------------------------|
----------------------------------------------------|
----------------------------------------------------|
--7-----7L----------7--7--5-----5L----------5--5----|


----------------------------------------------------|
----------------------------------------------------|
----------------------------------------------------|
--4-----4L----------4--4--2-----2L----------2--2----|


----------------------------------------------------|
----------------------------------------------------|
----------------------------------------------------|
--7-----------7-----7-----5-----5L----------5--5----|


----------------------------------------------------|
----------------------------------------------------|
----------------------------------------------------|
--4-----4L----------4--4--2-----2L----------2--2----|


----------------------------------------------------|
----------------------------------------------------|
----------------------------------------------------|
--7-----7L----------7--7--5-----5L----------5--5----|


----------------------------------------------------|
----------------------------------------------------|
----------------------------------------------------|
--4-----4L----------4--4--2-----2L----------2--2----|


----------------------------------------------------|
----------------------------------------------------|
----------------------------------------------------|
--7-----------7-----7-----5-----5L----------5--5----|


----------------------------------------------------|
----------------------------------------------------|
----------------------------------------------------|
--4-----4L----------4--4--2-----2L----------2--2----|


----------------------------------------------------|
----------------------------------------------------|
--2-----------2-----------5-----5L----------5--5----|
----------------------------------------------------|


--------------------------------------------------------------------------------|
--------------------------------------------------------------------------------|
--------------------------------------------------5-----------5-----------------|
--3-----------3L----------------------3-----3-----------------------------------|


--------------------|----------------------------------------------------|
--------------------|----------------------------------------------------|
------5-----5h-4----|--2-----------2-----------5-----5L----------5--5----|
--------------------|----------------------------------------------------|


----------------------------------------------------|
----------------------------------------------------|
----------------------------------------------------|
--3L----------------3--3--3-----5-----5-------------|


----------------------------------------------------|
----------------------------------------------------|
--2-----------2-----------5-----5L----------5--5----|
----------------------------------------------------|


--------------------------------------------------------------------------------|
--------------------------------------------------------------------------------|
--------------------------------------------------5-----------5-----------------|
--3-----------3L----------------------3-----3-----------------------------------|


--------------------|----------------------------------------------------|
--------------------|----------------------------------------------------|
------5-----5h-4----|--2-----------2-----------5-----5L----------5--5----|
--------------------|----------------------------------------------------|


----------------------------------------------------|
----------------------------------------------------|
----------------------------------------------------|
--3L----------------3--3--3-----5-----5-------------|


----------------------------------------------------|
----------------------------------------------------|
----------------------------------------------------|
--7-----7L----------7--7--5-----5L----------5--5----|


----------------------------------------------------|
----------------------------------------------------|
----------------------------------------------------|
--4-----4L----------4--4--2-----2L----------2--2----|


----------------------------------------------------|
----------------------------------------------------|
----------------------------------------------------|
--7-----------7-----7-----5-----5L----------5--5----|


----------------------------------------------------|
----------------------------------------------------|
----------------------------------------------------|
--4-----4L----------4--4--2-----2L----------2--2----|


----------------------------------------------------|
----------------------------------------------------|
----------------------------------------------------|
--7-----7L----------7--7--5-----5L----------5--5----|


----------------------------------------------------|
----------------------------------------------------|
----------------------------------------------------|
--4-----4L----------4--4--2-----2L----------2--2----|


----------------------------------------------------|
----------------------------------------------------|
----------------------------------------------------|
--7-----------7-----7-----5-----5L----------5--5----|


----------------------------------------------------|
----------------------------------------------------|
----------------------------------------------------|
--4-----4L----------4--4--2-----2L----------2--2----|


----------------------------------------------------|
----------------------------------------------------|
----------------------------------------------------|
--7-----7L----------7--7--5-----5L----------5--5----|


----------------------------------------------------|
----------------------------------------------------|
----------------------------------------------------|
--4-----4L----------4--4--2-----2L----------2--2----|


----------------------------------------------------|
----------------------------------------------------|
----------------------------------------------------|
--7-----------7-----7-----5-----5L----------5--5----|


----------------------------------------------------|
----------------------------------------------------|
----------------------------------------------------|
--4-----4L----------4--4--2-----2L----------2--2----|


----------------------------------------------------|
----------------------------------------------------|
----------------------------------------------------|
--7-----7L----------7--7--5-----5L----------5--5----|


----------------------------------------------------|
----------------------------------------------------|
----------------------------------------------------|
--4-----4L----------4--4--2-----2L----------2--2----|


----------------------------------------------------|
----------------------------------------------------|
----------------------------------------------------|
--7-----------7-----7-----5-----5L----------5--5----|


----------------------------------------------------|
----------------------------------------------------|
----------------------------------------------------|
--4-----4L----------4--4--2-----2L----------2--2----|


----------------------------------------------------|
----------------------------------------------------|
--2-----------2-----------5-----5L----------5--5----|
----------------------------------------------------|


--------------------------------------------------------------------------------|
--------------------------------------------------------------------------------|
--------------------------------------------------5-----------5-----------------|
--3-----------3L----------------------3-----3-----------------------------------|


--------------------|----------------------------------------------------|
--------------------|----------------------------------------------------|
------5-----5h-4----|--2-----------2-----------5-----5L----------5--5----|
--------------------|----------------------------------------------------|


----------------------------------------------------|
----------------------------------------------------|
----------------------------------------------------|
--3L----------------3--3--3-----5-----5-------------|


----------------------------------------------------|
----------------------------------------------------|
--2-----------2-----------5-----5L----------5--5----|
----------------------------------------------------|


--------------------------------------------------------------------------------|
--------------------------------------------------------------------------------|
--------------------------------------------------5-----------5-----------------|
--3-----------3L----------------------3-----3-----------------------------------|


--------------------|----------------------------------------------------|
--------------------|----------------------------------------------------|
------5-----5h-4----|--2-----------2-----------5-----5L----------5--5----|
--------------------|----------------------------------------------------|


----------------------------------------------------|
----------------------------------------------------|
----------------------------------------------------|
--3L----------------3--3--3-----5-----5-------------|


----------------------------------------------------|
----------------------------------------------------|
----------------------------------------------------|
--7-----7L----------7--7--5-----5L----------5--5----|


----------------------------------------------------|
----------------------------------------------------|
----------------------------------------------------|
--4-----4L----------4--4--2-----2L----------2--2----|


----------------------------------------------------|
----------------------------------------------------|
----------------------------------------------------|
--7-----------7-----7-----5-----5L----------5--5----|


----------------------------------------------------|
----------------------------------------------------|
----------------------------------------------------|
--4-----4L----------4--4--2-----2L----------2--2----|


----------------------------------------------------|
----------------------------------------------------|
----------------------------------------------------|
--7-----7L----------7--7--5-----5L----------5--5----|


----------------------------------------------------|
----------------------------------------------------|
----------------------------------------------------|
--4-----4L----------4--4--2-----2L----------2--2----|


----------------------------------------------------|
----------------------------------------------------|
----------------------------------------------------|
--7-----------7-----7-----5-----5L----------5--5----|


----------------------------------------------------|-------|-------|-------|
----------------------------------------------------|-------|-------|-------|
----------------------------------------------------|-------|-------|-------|
--4-----4L----------4--4--2-----2L----------2--2----|-------|-------|-------|


-------|-------|-------|-------|
-------|-------|-------|-------|
-------|-------|-------|-------|
-------|-------|-------|-------|


----------------------------------------------------|
----------------------------------------------------|
--------------2-----------2--------2--5--2--0-------|
----------------------------------------------------|


----------------------------------------------------|
----------------------------------------------------|
----------------------------------------------------|
--7-----7L----------7--7--5-----5L----------5--5----|


----------------------------------------------------|
----------------------------------------------------|
----------------------------------------------------|
--4-----4L----------4--4--2-----2L----------2--2----|


----------------------------------------------------|
----------------------------------------------------|
----------------------------------------------------|
--7-----7L----------7--7--5-----5L----------5--5----|


----------------------------------------------------|
----------------------------------------------------|
----------------------------------------------------|
--4-----4L----------4--4--2-----2L----------2--2----|


----------------------------------------------------|
----------------------------------------------------|
----------------------------------------------------|
--7-----------7-----7-----5-----5L----------5--5----|


----------------------------------------------------|
----------------------------------------------------|
----------------------------------------------------|
--4-----4L----------4--4--2-----2L----------2--2----|


----------------------------------------------------|
----------------------------------------------------|
----------------------------------------------------|
--7-----------7-----7-----5-----5L----------5--5----|


----------------------------------------------------||
----------------------------------------------------||
----------------------------------------------------||
--4-----4L----------4--4--2-----2L----------2--2----||
Suggest correction
Creating personal tab
Creating personal tab
You can edit any tab online and save it as your Personal.

You can edit, replace or remove any tab part or add personal notes – all changes will be seen only by you.

Personal tabs can be accessed anytime from any device, even offline.
Learn more »
Give kudos to tab author, rate the tab!
1 2 3 4 5
comments
print report bad tab
guest
You may want to rate the tab now too:
select rating
Wanna post a correction for this tab? Suggest correction