Oops, an error
Loading. Please wait.

Ein Stern Der Deinen Namen Trägt tab

2,688 views 3 this week
no commentswrite comment
1 2 3 4 5
1 last vote to show rating
add to favorites
×
Save as Personal and add changes to this tab that will be seen only by you. Learn more ›
×
You can save this tab as Personal to edit and correct it or add notes. All changes will be seen only by you. Learn more »
launch autoscroll
font size
0
reset
how to read this tab
guitar tuner
edit
Autoscroll
slow
fast
+/-
esc
set tempo
stop
Artist: DJ Oetzi & Nik P.
Title:  Einen Stern der Deinen Namen traegt
Tuning: E A D G B e  ( The B is in Germany H)
Tabber: FEPO

I've seen good Chord Versions here at Ultimate Guitar,
but no one have all Guitar Chords and Tabs. So i've done it.

I play this with Powerchords:

C = C5            G = G5....        and so on

Have Fun :)

You can also play the Piano Part with your guitar like 
showing below ;)


[Piano Part]

e|-12~-15-13-12---------15-13-12------------------12--|
H|---------------------------------15--15--13--15-----|
G|----------------14----------------------------------|
D|----------------------------------------------------|
A|----------------------------------------------------|
E|----------------------------------------------------|

Guitar Riff 1:

e|------------------------------------|
H|-6-5~--6-6-5~-----------------------|
G|-5-5~--5-5-5~-----------------------|
D|------------------------------------|
A|------------------------------------|
E|------------------------------------|





[Verse]

C                                 F
Seit Jahren schon leb ich mit Dir
                         G
und ich danke Gott dafür,
                          C
das er mir Dich gegeben hat.

Guitar Riff 1:

e|------------------------------------|
H|-6-5~--6-6-5~-----------------------|
G|-5-5~--5-5-5~-----------------------|
D|------------------------------------|
A|------------------------------------|
E|------------------------------------|
                              F                   
Als Erinnerung an unser Leben
                               G 
möcht ich Dir heut etwas geben .
                                C
Ein Geschenk für alle Ewigkeit.

Guitar Riff 1:

e|------------------------------------|
H|-6-5~--6-6-5~-----------------------|
G|-5-5~--5-5-5~-----------------------|
D|------------------------------------|
A|------------------------------------|
E|------------------------------------|



      C                       F  
Einen Stern der Deinen Namen trägt ,
                   G
hoch am Himmelszelt  
                               C   
den schenk ich Dir heut Nacht.

Guitar Riff 1:

e|------------------------------------|
H|-6-5~--6-6-5~-----------------------|
G|-5-5~--5-5-5~-----------------------|
D|------------------------------------|
A|------------------------------------|
E|------------------------------------|

                                 F
Einen Stern der Deinen Namen trägt,
                     G
alle Zeiten überlebt
                           C
und über unsere Liebe wacht .


Guitar Riff 1:

e|------------------------------------|
H|-6-5~--6-6-5~-----------------------|
G|-5-5~--5-5-5~-----------------------|
D|------------------------------------|
A|------------------------------------|
E|------------------------------------|



Play this second Verse like the first

Second Verse:

Irgendwann ist es vorbei
und im Himmel wird platz für uns zwei.
Doch Dein Stern bleibt oben
für immer und ewig stehn.

Guitar Riff 1:

e|------------------------------------|
H|-6-5~--6-6-5~-----------------------|
G|-5-5~--5-5-5~-----------------------|
D|------------------------------------|
A|------------------------------------|
E|------------------------------------|


Und auch noch in tausend Jahren
wird er Deinen Namen tragen
Und immer noch der schönste von allen sein

Guitar Riff 1:

e|------------------------------------|
H|-6-5~--6-6-5~-----------------------|
G|-5-5~--5-5-5~-----------------------|
D|------------------------------------|
A|------------------------------------|
E|------------------------------------|


      C                       F  
Einen Stern der Deinen Namen trägt ,
                   G
hoch am Himmelszelt  
                               C   
den schenk ich Dir heut Nacht.


Guitar Riff 1:

e|------------------------------------|
H|-6-5~--6-6-5~-----------------------|
G|-5-5~--5-5-5~-----------------------|
D|------------------------------------|
A|------------------------------------|
E|------------------------------------|

                                 F
Einen Stern der Deinen Namen trägt,
                     G
alle Zeiten überlebt
                           C
und über unsere Liebe wacht .


Guitar Riff 1:

e|------------------------------------|
H|-6-5~--6-6-5~-----------------------|
G|-5-5~--5-5-5~-----------------------|
D|------------------------------------|
A|------------------------------------|
E|------------------------------------|

A little Rest then

e|-12~-15-13-12-----------------------|
H|------------------------------------|
G|--------------14--------------------|
D|------------------------------------|
A|------------------------------------|
E|------------------------------------|


D                            G
Einen Stern der Deinen Namen trägt ,
                   A
hoch am Himmelszelt  
                               D   
den schenk ich Dir heut Nacht.

Guitar Riff 2:

e|------------------------------------|
H|-8-7~--8-8-7~-----------------------|
G|-7-7~--7-7-7~-----------------------|
D|------------------------------------|
A|------------------------------------|
E|------------------------------------|


D                                 G
Einen Stern der Deinen Namen trägt,
                     A
alle Zeiten überlebt
                           D
und über unsere Liebe wacht .

Guitar Riff 2:

e|------------------------------------|
H|-8-7~--8-8-7~-----------------------|
G|-7-7~--7-7-7~-----------------------|
D|------------------------------------|
A|------------------------------------|
E|------------------------------------|

            
            
Suggest correction
Creating personal tab
Creating personal tab
You can edit any tab online and save it as your Personal.

You can edit, replace or remove any tab part or add personal notes – all changes will be seen only by you.

Personal tabs can be accessed anytime from any device, even offline.
Learn more »
Give kudos to tab author, rate the tab!
1 2 3 4 5
comments
print report bad tab
guest
You may want to rate the tab now too:
select rating
Wanna post a correction for this tab? Suggest correction