Oops, an error
Loading. Please wait.

Rimas Pa Seducir tab

version 2
version 2

Whole song

Interactive

6,913 views 9 this week
no commentswrite comment
1 2 3 4 5
2 more votes to show rating
add to favorites
×
Save as Personal and add changes to this tab that will be seen only by you. Learn more ›
×
You can save this tab as Personal to edit and correct it or add notes. All changes will be seen only by you. Learn more »
launch autoscroll
font size
0
reset
how to read this tab
guitar tuner
edit
Autoscroll
slow
fast
+/-
esc
set tempo
stop
Author
Difficulty
This is a beautiful song, this is my first tab, please rate an comment

Chords:
Bmaj7   224342
C#9sus4 444444
Emaj    022100
Em11    304430
Bmaj11  708870 [this chord in chorus and prechorus is like: 708876]
D#m7    668676
Emaj7   779897
D#m7*   x68676

*intro

     Bmaj7       C#9sus4        Emaj          Em11
e|----2------|---4-4-4-----|---------0---|-------0-----|
B|--4-4-4----|-4-4-4-4-4---|---0-----0---|---3-3-3-----|
G|--3---3----|-4---------4-|---1-----1---|---4-4-------|
D|--4--------|-4-----------|---2-1h2-----|---4---------| x2
A|-----------|-------------|---2---------|-------------|
E|--2--------|-4-----------|-------------|---3---------|

     Bmaj11        D#m7         Emaj7         D#m7*
e|-----0-----|------6------|---------7---|---6---------|
B|--7-7-7-7--|----7-7-7----|---9-7h9-9---|---7-7-------|
G|--8----8---|----6---8----|---8-8---8---|---6---6-----|
D|--8--------|----8--------|---9---------|-------------| x2
A|-----------|-------------|-------------|---6---------|
E|--7--------|----6--------|---7---------|-------------|

*verse (quieren que hable...)

     Bmaj11        D#m7         Emaj7         D#m7*
e|-----0-----|------6------|---------7---|---6---------|
B|--7-7-7-7--|----7-7-7----|---9-7h9-9---|---7-7-------|
G|--8----8---|----6---8----|---8-8---8---|---6---6-----|
D|--8--------|----8--------|---9---------|-------------| x2
A|-----------|-------------|-------------|---6---------|
E|--7--------|----6--------|---7---------|-------------|

     Bmaj11        D#m7         Emaj7         D#m7*
e|-----0-----|------6------|-----7-------|-----6-------|
B|--7-7-7-7--|----7-7-7----|---9-9-9-----|---7-7-7-----|
G|--8----8---|----6---8----|---8---8-----|---6---6-----|
D|--8--------|----8--------|---9---------|---8---------| x2
A|-----------|-------------|-------------|---6---------|
E|--7--------|----6--------|---7---------|-------------|

*prechorus (en estos dias busco amor...)

     Emaj7        [Bmaj11]
e|----7-------|-----6-------|
B|--9-9-9-----|---7-7-7-----|
G|--8---8-----|---8---8-----|
D|--9---------|---8---------|
A|------------|-------------|
E|--7---------|---7---------|

     Emaj7         D#m7*
e|----7-------|-----6-------|
B|--9-9-9-----|---7-7-7-----|
G|--8---8-----|---6---6-----|
D|--9---------|---8---------|
A|------------|---6---------|
E|--7---------|-------------|

     Emaj7        [Bmaj11]
e|----7-------|-----6-------|
B|--9-9-9-----|---7-7-7-----|
G|--8---8-----|---8---8-----|
D|--9---------|---8---------|
A|------------|-------------|
E|--7---------|---7---------|

     Emaj7         D#m7*
e|----7-7-7h9-|---6-6-6-----|
B|--9-9-9-7---|---7-7-7-----|
G|--8---------|---6---------|
D|--9---------|-------------|
A|------------|---6---------|
E|--7---------|-------------|

*chorus (busco invertir...)

    [Bmaj11]      C#9sus4        Emaj          Em11
e|----6------|---4-4-4-----|---------0---|-------0-----|
B|--7-7-7----|-4-4-4-4-4---|---0-----0---|---3-3-3-----|
G|--8---8----|-4---------4-|---1-----1---|---4-4-------|
D|--8--------|-4-----------|---2-1h2-----|---4---------| x2
A|-----------|-------------|---2---------|-------------|
E|--7--------|-4-----------|-------------|---3---------|

     Bmaj11        D#m7         Emaj7         D#m7*
e|-----0-----|------6------|---------7---|---6---------|
B|--7-7-7-7--|----7-7-7----|---9-7h9-9---|---7-7-------|
G|--8----8---|----6---8----|---8-8---8---|---6---6-----|
D|--8--------|----8--------|---9---------|-------------| x2
A|-----------|-------------|-------------|---6---------|
E|--7--------|----6--------|---7---------|-------------|

*verse (quieren que grite...)

*prechorus(en estos dias busco amor...)

*chorus (busco invertir...) 

            
            
Suggest correction
Creating personal tab
Creating personal tab
You can edit any tab online and save it as your Personal.

You can edit, replace or remove any tab part or add personal notes – all changes will be seen only by you.

Personal tabs can be accessed anytime from any device, even offline.
Learn more »
Give kudos to tab author, rate the tab!
1 2 3 4 5
comments
print report bad tab
guest
You may want to rate the tab now too:
select rating
Wanna post a correction for this tab? Suggest correction