Oops, an error
Loading. Please wait.

The Game bass

version 2
version 2

Whole song

2,171 views 3 this week
no commentswrite comment
1 2 3 4 5
2 more votes to show rating
add to favorites
×
Save as Personal and add changes to this tab that will be seen only by you. Learn more ›
×
You can save this tab as Personal to edit and correct it or add notes. All changes will be seen only by you. Learn more »
launch autoscroll
font size
0
reset
guitar tuner
backing track
0:00
0:00
edit
Autoscroll
slow
fast
+/-
esc
set tempo
stop
Intro
|----------|-----------------|----------|------|
|----------|-----------------|----------|------|
|----------|-----------------|----------|------|
|-0--------|-0-------(0)---0-|-0--------|-0----|

|-----------------------------|---------------------------------------|
|-----------------------------|---------------------------------------|
|-----------------------------|---------------------------------------|
|-0-0-0---x-0-0-0---x-x-x-x-x-|-0-0-0---x-0-0-0----x--x--x-------x--x-|

|------------------------------------|---------------------------------|
|------------------------------------|---------------------------------|
|------------------------------------|---------------------------------|
|---0-0----0----x--0-0-0---x-x-x-x-x-|-0--0-0---x-0-0-0---x-x-/12\-----|

   Chorus
||------------------------------|-----------------------------|
||------------------------------|-----------------------------|
||o------------------------3--2-|------------------------3--2-|
||----0--0--3--2---0-0--0-------|---0--0--3--2---0-0--0-------|

|-----------------------------|--------------------||
|-----------------------------|--------------------||
|------------------------3--2-|-------------------o||
|---0--0--3--2---0-0--0-------|---0--0--3--2-------||

 Verse
|-------------------|----------------|-------------------|---------------|
|-------------------|----------------|-------------------|---------------|
|-------------------|----------------|-------------------|---------------|
|--0---------3---5--|-0-----5--/3----|--0---------3---5--|-0------5--/3--|

|------------|-------------|------------|-------------|
|------------|-------------|------------|-------------|
|------------|-------------|------------|-------------|
|-0----3--5--|-0----5--/3--|-0----3--5--|-0----5--/3--|

 Bridge
|---------------------------------------|
|---------------------------------------|
|---------------------------------------|
|--0-0-0-6b6.5r(6)-0-0---0--6b6.5r(6)-5-|

|---------------------------------------|
|---------------------------------------|
|---------------------------------------|
|--0-0-0-6b6.5r(6)-0-0---0--6b6.5r(6)-5-|

|---------------------------------------|
|---------------------------------------|
|---------------------------------------|
|--0-0-0-6b6.5r(6)-0-0---0--6b6.5r(6)-5-|


|--------------------------------------------------------------------|
|--------------------------------------------------------------------|
|--------------------------------------------------------------------|
|--0-0-0-6b6.5r==(6)--0---0-----0-------6b6.5r==(6)----------5-------|

   Bridge (2nd Phase)
||----------------------------------------|
||----------------------------------------|
||o---------------------------------------|
||---0-0-0-6b6.5r(6)-0-0---0--6b6.5r(6)-5-|

|------------------------------------------||
|------------------------------------------||
|-----------------------------------------o||
|---0--0-0-6b6.5r(6)-0-0---0--6b6.5r(6)-5--||

 Pre-Chorus
|----------------------------|-----------------------|
|----------------------------|-----------------------|
|----------------------------|-----------------------|
|--0-0-0----0-0---0----------|-0-0-0----0-0-0--------|


|-----------------------|--------------------------|
|-----------------------|--------------------------|
|-----------------------|--------------------------|
|-0-0-0----0-0-0--------|-0-0-0----0-0-0----/12\---|

 Chorus 2
|-----------------------------|-----------------------------|
|-----------------------------|-----------------------------|
|------------------------3--2-|------------------------3--2-|
|---0--0--3--2---0-0--0-------|---0--0--3--2---0-0--0-------|

|-----------------------------|-----------------------
|-----------------------------|-----------------------
|------------------------3--2-|-----------------------
|---0--0--3--2---0-0--0-------|---0--0--3--2----------

|------------------------------|-----------------------------|
|------------------------------|-----------------------------|
|-------------------------3--2-|------------------------3--2-|
|---0---0--3--2---0-0--0-------|---0--0--3--2---0-0--0-------|

|-----------------------------|------------------------|
|-----------------------------|------------------------|
|------------------------3--2-|------------------------|
|---0--0--3--2---0-0--0-------|---0--0--3--2----/12\---|

 Verse 2
|------------|---------------|--------------|
|------------|---------------|--------------|
|------------|---------------|--------------|
|-0----3--5--|--0-----5--/3--|--0-----3--5--|

|--------------------------------------------------------|
|--------------------------------------------------------|
|--------------------------------------------------------|
|-0------------------5---------------/3------------------|

|-------------|---------------------------------------------------|
|-------------|---------------------------------------------------|
|-------------|---------------------------------------------------|
|--0----3--5--|-0----------------5---------------/3---------------|


|------------------|--------------|
|------------------|--------------|
|------------------|--------------|
|-0--------3--5----|-0----5--/3---|

   Outro
|----------------------------------|------------------------------------|
|----------------------------------|------------------------------------|
|----------------------------------|------------------------------------|
|-0-0-0-6b6-5r-6--0-0--0--6b6-56-5-|--0-0-0-6b6-56-0-0---0--6b6-5-6--5--|

 2.
|--------------------------------------------------------------------------|
|--------------------------------------------------------------------------|
|--------------------------------------------------------------------------|
|--0-0-0--6b6.5r=(6)------0---0-----0-------------6b6.5r===(6)---------5---|

||----------------------------------------|
||----------------------------------------|
||o---------------------------------------|
||---0-0-0-6b6.5r(6)-0-0---0--6b6.5r(6)-5-|

 4x
|----------------------------------------||
|----------------------------------------||
|---------------------------------------o||
|--0-0-0-6b6.5r(6)-0-0---0--6b6.5r(6)-5--||

|---------------------------------------|
|---------------------------------------|
|---------------------------------------|
|--0-0-0-6b6.5r(6)-0-0---0--6b6.5r(6)-5-|


|---------------------------------------|
|---------------------------------------|
|---------------------------------------|
|--0-0-0-6b6.5r(6)-0-0---0--6b6.5r(6)-5-|

|---------------------------------------|
|---------------------------------------|
|---------------------------------------|
|--0-0-0-6b6.5r(6)-0-0---0--6b6.5r(6)-5-|

|-------------------------------------------------------------|
|-------------------------------------------------------------|
|-------------------------------------------------------------|
|--0-0-0-6b6.5r(6)-0-0---0-------6b6.5r==(6)----------5-------|

|----------------------------------------------|
|----------------------------------------------|
|----------------------------------------------|
|--0-0-0-6b6.5r(6)-0-0---0---6b6.5r(6)-------5-|


|-------------------------------------------------|
|-------------------------------------------------|
|-------------------------------------------------|
|--0----0-0-6b6.5r(6)-0-0---0---6b6.5r(6)-------5-|

|-----------------------------------------------------|
|-----------------------------------------------------|
|-----------------------------------------------------|
|--0----0-0-6b6.5r(6)-0-0---0---6b6.5r=(6)-------5----|

|----------------------------------------------------------|
|----------------------------------------------------------|
|----------------------------------------------------------|
|---0--0--0-------6b6.5r=====(6)--0-0---0-----6b6.5r(6)-5--|

|--------------------------------------------------------|
|--------------------------------------------------------|
|--------------------------------------------------------|
|--0-0-0--6b6.5r(6)-0-0---0----6b6.5r(6)-----------5-----|

|--------------------------------------------------------------------------|
|--------------------------------------------------------------------------|
|--------------------------------------------------------------------------|
|---0----0-----0------6b6.5r(6)---0----0-------0---------6b6.5r(6)-------5-|

|---------------------------------------|
|---------------------------------------|
|---------------------------------------|
|--0-0-0-6b6.5r(6)-0-0---0--6b6.5r(6)-5-|


|---------------------------------------*|
|---------------------------------------*|
|---------------------------------------*|
|--0-0-0-6b6.5r(6)-0-0---0--6b6.5r(6)-5-*|

            
            
Suggest correction
Creating personal tab
Creating personal tab
You can edit any tab online and save it as your Personal.

You can edit, replace or remove any tab part or add personal notes – all changes will be seen only by you.

Personal tabs can be accessed anytime from any device, even offline.
Learn more »
Give kudos to tab author, rate the tab!
1 2 3 4 5
comments
print report bad tab
guest
You may want to rate the tab now too:
select rating
Wanna post a correction for this tab? Suggest correction