Oops, an error
Loading. Please wait.

Straight Outta Hell tab

345 views 1 this week
no commentswrite comment
1 2 3 4 5
x 3
add to favorites
×
Save as Personal and add changes to this tab that will be seen only by you. Learn more ›
×
You can save this tab as Personal to edit and correct it or add notes. All changes will be seen only by you. Learn more »
launch autoscroll
font size
0
reset
how to read this tab
guitar tuner
edit
Autoscroll
slow
fast
+/-
esc
set tempo
stop
Straight Outta Hell - Crashdïet (Rest in Sleaze)

On the album: Eb Tuning/ half step down
Live: D tuning/ 1 step down/ DGCFAD


[Intro]

Do a pick slide bofore each chord
E---------3-------------3----------------|
B---------3-------------3----------------|
G--2------0------2------0----------------|
D--2------0------2------0----------------|
A--0------x------0------x----------------|
E---------3-------------3--------3--2----|

E----------------------------------------------|
B----------------------3--2--------------------|
G---4--2--4---2--4--2--2--2--4-----------------|
D---4--2--4---2--4--2--------4-----------------|
A-------------------------------2-2-2-2-2-2----|
E----------------------------------------------| x4


[Verse]

E------------------3--3----------------------3--3---|
B------------------3--3----------------------3--3---|
G--4--2--2------2--0--0------4--2--2------2--0--0---|
D--4--2--2------2--0--0------4--2--2------2--0--0---|
A--2--0--0------0--x--x------2--0--0------0--x--x---|
E------------------3--3----------------------3--3---|


[Chorus]

E----------------------------------------------|
B----------------------3--2--------------------|
G---4--2--4---2--4--2--2--2--4-----------------|
D---4--2--4---2--4--2--------4-----------------|
A-------------------------------2-2-2-2-2-2----|
E----------------------------------------------|


[Bridge]

E-------------------------------------------------|
B-------------------------------------------------|
G--7--9--11-11-11--11-11-11--9--9--9---9--9--9----|
D--7--9--11-11-11--11-11-11--9--9--9---9--9--9----|
A--5--7--9--9--9---9--9--9---7--7--7---7--7--7----|
E-------------------------------------------------|

E--------------------------------------------|
B--------------------------------------------|
G---11-11-11--11-11-11--9--9--9---9--9--9----|
D---11-11-11--11-11-11--9--9--9---9--9--9----|
A---9--9--9---9--9--9---7--7--7---7--7--7----|
E--------------------------------------------|


[Solo rythm guitar]

E----------------------------------|
B----------------------------------|
G---11-------7--7--7---7--7--7-----|
D---11-------7--7--7---7--7--7-----|
A---9--------5--5--5---5--5--5-----|
E----------------------------------| x2


[Guitar solo]

E-----------------------------------------------|
B--10-9----------9-10--12-10-9------9-10--------|
G--11-9--11-9-11-9-11--13-11-9-9-11-9-11---7----|
D--------11-9-11---------------9-11--------7----|
A-----------------------------------------------|
E-----------------------------------------------|

E---------------------------------------------------------------|
B--10-9----------9-10--12-10-9------9-10-------------10/12-12---|
G--11-9--11-9-11-9-11--13-11-9-9-11-9-11---7---9--11------------|
D--------11-9-11---------------9-11--------7--------------------|
A---------------------------------------------------------------|
E---------------------------------------------------------------|


[Outro chorus]
After the solo they play the normal chorus riff 4 times before this part.
The bass (and rythm guitar?) changes and play these notes at the same time:

    A                                    G                       A            B
E-----------------------------------------------------------------------------|
B-----------------------------------------------------------------------------|
G---4--2--4--2--4--2--4--2--4--2--4--2---4--2--4--2--4--2--4--2--4--2--4--2---|
D---4--2--4--2--4--2--4--2--4--2--4--2---4--2--4--2--4--2--4--2--4--2--4--2---|
A-----------------------------------------------------------------------------|
E-----------------------------------------------------------------------------|

then back to the normal riff once before ending like this:

E--------------------------------|
B----------------------3--2------|
G---4--2--4---2--4--2--2--2--4---|
D---4--2--4---2--4--2--------4---|
A----------------------------2---|
E--------------------------------|

x - mute
/ - slide

            
            
Suggest correction
Creating personal tab
Creating personal tab
You can edit any tab online and save it as your Personal.

You can edit, replace or remove any tab part or add personal notes – all changes will be seen only by you.

Personal tabs can be accessed anytime from any device, even offline.
Learn more »
Give kudos to tab author, rate the tab!
1 2 3 4 5
comments
print report bad tab
guest
You may want to rate the tab now too:
select rating
Wanna post a correction for this tab? Suggest correction