Oops, an error
Loading. Please wait.

Elämän Tarkoitus Tab

1,975 views 6 this week
no commentswrite comment
1 2 3 4 5
3 more votes to show rating
add to favorites
×
Save as Personal and add changes to this tab that will be seen only by you. Learn more ›
×
You can save this tab as Personal to edit and correct it or add notes. All changes will be seen only by you. Learn more »
save as personal
new!
launch autoscroll
font size
0
reset
how to read this tab
guitar tuner
Autoscroll
slow
fast
+/-
esc
set tempo
stop
Author
Artisti: Kolmas Nainen
Albumi: Elämän Tarkoitus
Kappale: Elämän Tarkoitus

Tuning: Eb Ab Gb Db Bb Eb

Intro 
 F           Am            Eb                 C
e|-----------|-------------|--------------------|-----------------------|
B|-/10-------|-------13-13-|-13-11-11-10-10-8-8-|-----------------------|
G|-----------|-------------|--------------------|-10-10-9-9-7-7-10-10-7-|
D|-/7--------|-------10-10-|-10-8--8--7--7--5-5-|-----------------------|
A|-----------|-------------|--------------------|-8--8--7-7-5-5-8--8--5-|
E|-----------|-------------|--------------------|-----------------------|

  F           Am            Bb        F              Eb
e|-----------|-------------|------------------------|---6--------|
B|-/10---8-6-|-5-/11-11-10-|-13-13-13-11-11-11-10---|-----8--/11-|
G|-----------|-------------|-14-14-14-10-10-10------|------------|
D|-/7----5-3-|-2-/8--8--7--|-10-10-10-8--8--8--7----|------------|
A|-----------|-------------|------------------------|------------|
E|-----------|-------------|----------------------5-|-6----------|
  Eb
e|--------------|   
B|--/13-11-13-10|    
G|--------------|    
D|--------------|
A|--------------|
E|--------------|

[Verse]

Dm                     C              Dm
Ei oo ihme etten jaksa ajatella
C
asioita
Dm            C                 [Fill 1]Bbsus4 Bb  Absus4 Ab C               
Pääni täynnä kaikenlaista joutavaa joka ei kuuluis sinne ollenkaan

 [Fill 1]
e|-3-------|------------|--------------------|
B|-3p1-1---|-6--5-------|-5------------------|
G|-----2p0-|-5--5--6--5-|-5------------------|
D|---------|-5--5--6--6-|-5--------3---------|
A|---------|-3--3--6--6-|-3----3h5---5p3--/5-|
E|---------|-------4--4-|----------------5---|

[Verse]

Dm            C                         
Tänä yönä mun kroppa valittaa
Dm                  C      [Fill 2]
jokaista kokemaansa kolhua
Bb               Dm                         [Fill 3]
Tänä yönä tunnen heikkouteni tarkemmin kuin koskaan

 [Fill 2]
e|-3-------|
B|-3p1-1---|
G|-----2p0-|
D|---------|
A|---------|
E|---------|

 [Fill 3]
e|--------------------------------------------|
B|--------------------------------------------|
G|-5/7-7-7-7/9-9-9-9/10-10-10-10/12-12-12-\10-|
D---------------------------------------------|
A|-3/5-5-5-5/7-7-7-7/8--8--8--8-/10-10-10-\8--|
E|--------------------------------------------|

[Chorus]

F         Am
Ei vuodet kulu, ne kuluttaa
Eb           [Fill 4] 
Puree palan, sitä mutustaa
F          Am
Se minkä koetat jättää taa
Bb    F    Eb    [Fill 5]
muistaa muistuttaa

[Fill 4}
e|--------------------------|
B|--------------------------|
G|-5-5/7-7/9-9/12-12\9--/12-|
D|--------------------------|
A|-3-3/5-5/7-7/10-10\7--/10-|
E|--------------------------|

[Fill 5]
e|-3-3-1---1~-|---------|
B|-4-----4-4~-|---------|
G|-3-------3~-|-5-3-5-2~|
D|-1----------|---------|
A|------------|---------|
E|------------|---------|

[Interlude]

  Dm                                C
e|---------------------------------|-----------------------------| 
B|---------------------------------|-5-6-8-6-5--5-6-8-6-5--5-6-8-|
G|---------------------------------|-----------------------------|
D|-----7-8-7-5---5-----7-8-7-5---5-|-----------------------------|
A|-5-8---------8---5-8---------8---|-----------------------------|
E|---------------------------------|-----------------------------|x2

[Verse] x2  (the fills used are not exactly the same, but those I have written work just fine)
[Chorus]

[Solo]

  Dm                     C              Dm
e|----------------------|-------------|-----------------------|
B|----------------------|-------------|-----------------------|
G|----------------------|-------------|-----------------------|
D|-------5-5---h7p5---5-|-------------|-------5-5---h7p5----5-|
A|-5-5-8------------8---|-----b5------|-5-5-8-------------8---|
E|----------------------|--------8----|-----------------------|
  C                         Bb
e|--------------------|-------------------------------------|
B|--------------------|-------------11-13-11-13b15r13p11-10-|
G|---------7----------|-------10-12-------------------------|
D|-/10--10------------|-10-12-------------------------------|
A|-----------10\8-7-8-|-------------------------------------|
E|--------------------|-------------------------------------|
  Dm                              [Fill 3] 
e|-13----------------------------|------------------------|
B|----10-13----------------------|------------------------|
G|----------10-12----10----------|------------------------|
D|----------------12-------------|-----10-----10----------|
A|----------------------12-11-10-|-8-7----8-7----8-7-3----|
E|-------------------------------|------------------------|

e|-----------------------|
B|-----------------------|
G|-----------------------|
D|-----------------------|
A|-1-0-1h3p1p0h1p0---0---|
E|-----------------3---1-|

 [Fill 3]
e|--------------------------------------------|
B|--------------------------------------------|
G|-5/7-7-7-7/9-9-9-9/10-10-10-10/12-12-12-\10-|
D|--------------------------------------------|
A|-3/5-5-5-5/7-7-7-7/8--8--8--8-/10-10-10-\8--|
E|--------------------------------------------|


[Chorus] x3

[Interlude] fade out



*************************************
|/   Slide up
|\   Slide down
|p   Pull-off
|h   Hammer-on
|b   Bend
|r   Return
*************************************
Suggest correction
Give kudos to tab author, rate the tab!
1 2 3 4 5
comments
print report bad tab
guest
You may want to rate the tab now too:
select rating
Wanna post a correction for this tab? Suggest correction