Oops, an error
Loading. Please wait.

Waldspaziergang Mit Folgen tab

3,494 views 1 this week
2 commentsread comments
1 2 3 4 5
x 3
add to favorites
×
Save as Personal and add changes to this tab that will be seen only by you. Learn more ›
×
You can save this tab as Personal to edit and correct it or add notes. All changes will be seen only by you. Learn more »
launch autoscroll
font size
0
reset
how to read this tab
guitar tuner
edit
Autoscroll
slow
fast
+/-
esc
set tempo
stop
Author
Intro and Verse:

      Find your own Rhythm 
E:----------------------------------------------------|
H:----------------------------------------------------|
G:-5-5-x-5---10-8-10--x-x-x-x-----------5-3-5-x-x-x-x-|
D:-5-5-x-5---10-8-10--x-x-x-x--8-8-x-8--5-3-5-x-x-x-x-|
A:-3-3-x-5----8-6--8--x-x-x-x--8-8-x-8--3-1-3-x-x-x-x-|
E:-----------------------------6-6-x-6----------------|

Chorus:

E:--------------------------------|
H:--------------------------------|
G:-5-5-x-5-------------10-10-10---|
D:-5-5-x-5---8-8-x-8---10-10-10---| starts with the C-power Chords again
A:-3-3-x-5---8-8-x-8---8--8--8----|
E:-----------6-6-x-6--------------|  



Play this fast! ( Except for the ~~~ parts, you know what I mean)
          
E:-----8--8--8--8--8--8~----|
H:-----11-11-11-11-11-8~----|
G:-5~~~9--9--9--9--9--9~----|
D:-5~~~8--8--8--8--8--8~----|
A:-3~~~10-10-10-10-10-10~---|
E:-----8--8--8--8--8--8-~---|         


-8--8--8--8----6-6-x-6~--8--8--8---------------------------|
-10-10-10-10---8-8-x-8~--10-10-10--------------------------|
-10-10-10-10---8-8-x-8~--10-10-10------10p8-----8----------|
-10-10-10-10---8-8-x-8~--10-10-10-----------10-----10~~~~~-|
-8--8--8--8----6-6-x-6~--8--8--8---------------------------|
-8--8--8--8----6-6-x-6~--8--8--8---------------------------|






As I said, listen to the song and find your Rythm!
Suggest correction
Creating personal tab
Creating personal tab
You can edit any tab online and save it as your Personal.

You can edit, replace or remove any tab part or add personal notes – all changes will be seen only by you.

Personal tabs can be accessed anytime from any device, even offline.
Learn more »
Give kudos to tab author, rate the tab!
1 2 3 4 5
comments
print report bad tab
2 comments total.
0 reply
wf96 113 Jan 02, 2013 05:06 AM

Guter Tab aber aus dem 8 würde ich über all den stinknormalen Powerchord
8
8

6 machen ;)

guest
You may want to rate the tab now too:
select rating
Wanna post a correction for this tab? Suggest correction