Oops, an error
Loading. Please wait.

Blank Page Of The Blind tab

639 views 3 this week
no commentswrite comment
1 2 3 4 5
2 more votes to show rating
add to favorites
×
Save as Personal and add changes to this tab that will be seen only by you. Learn more ›
×
You can save this tab as Personal to edit and correct it or add notes. All changes will be seen only by you. Learn more »
launch autoscroll
font size
0
reset
how to read this tab
guitar tuner
edit
Autoscroll
slow
fast
+/-
esc
set tempo
stop
Tabbed by JaaaayDeeee 
email: jdgilbert@ntlworld.com

Tuning: open E
I originally tabbed this out in standard but I found an interview in which Ichirou revealed that he uses "open tuning"

*woof woof woof woof woof ect.*

e-----------------|
B-----------------| x4
G#--1-2b-----9-9--|
E-0-0-1b-5-5-8-8--|
B-0------5-5-6-6--|
E--------5-5------|

e-------------------------| with octave effect 
B-------------------------| actually can't count how many times you do this
G#-7\4/7\4/7\4/7\4--------| you get the gist
E-------------------------|
B-------------------------|
E-------------------------|

repeat whole thing again

CRAZY BIT

This is just my own interpretation, Ichirou uses several pitch shifting effects so if you have any you
can basically just improvise with them here.

pm on the top 3 strings while sliding up

e---15---16--17--18---19--20--21-|
B--------------------------------|
G#-------------------------------|
E-/----/---/---/----/---/----/---|
B-/----/---/---/----/---/----/---|
E-/----/---/---/----/---/----/---|

e-21bu-22bu-21bu-(random sliding/sound effects/noise)|
B----------------------------------------------------|
G#---------------------------------------------------|
E----------------------------------------------------|
B----------------------------------------------------|
E----------------------------------------------------|


e--------------------------------|
B--------------------------------|
G#----11-----11-11----9/11-11----|
E--8--10--8--10-10-8--8/10-10-8--|
B--8--8---8--8--8--8--6/8--8--8--|
E--8------8--------8----------8--|

e---------------------|
B---------------------|
G#-11-11---9/11-11----| x8
E--10-10-8-8/10-10-8--|
B--8--8--8-6/8--8--8--|
E--------8---------8--|

e-------------------------------------|
B-------------------------------------|
G#------------------------------------|
E-8--8--8--8--8--8--8--8--8--8--8--8--|
B-8--8--8--8--8--8--8--8--8--8--8--8--|
E-8--8--8--8--8--8--8--8--8--8--8--8--|

e-------------------------------------|
B-------------------------------------|
G#------------------------------------|
E-8--8--8--8--8--8--8--8--8--8--8--8--|
B-8--8--8--8--8--8--8--8--8--8--8--8--|
E-8--8--8--8--8--8--8--8--8--8--8--8--|

e---------------------------------------------|
B---------------------------------------------| x4
G#---------9--9--9--9-------------------------|
E--4-4-4-4-8--8--8--8--8--8--8--8--8--8--8--8-|
B--4-4-4-4-6--6--6--6--8--8--8--8--8--8--8--8-|
E--4-4-4-4-------------8--8--8--8--8--8--8--8-|

e-------------------------------------|
B-------------------------------------|
G#------------------------------------|
E-8--8--8--8--8--8--8--8--8--8--8--8--|
B-8--8--8--8--8--8--8--8--8--8--8--8--|
E-8--8--8--8--8--8--8--8--8--8--8--8--|

e-------------------------------------|
B-------------------------------------|
G#------------------------------------|
E-8--8--8--8--8--8--8--8--8--8--8--8--|
B-8--8--8--8--8--8--8--8--8--8--8--8--|
E-8--8--8--8--8--8--8--8--8--8--8--8--|

e-------------------------|
B-------------------------| 
G#---------9--9--9--9-----|
E--4-4-4-4-8--8--8--8--8\-|
B--4-4-4-4-6--6--6--6--8\-|
E--4-4-4-4-------------8\-|

please rate thanks
Suggest correction
Creating personal tab
Creating personal tab
You can edit any tab online and save it as your Personal.

You can edit, replace or remove any tab part or add personal notes – all changes will be seen only by you.

Personal tabs can be accessed anytime from any device, even offline.
Learn more »
Give kudos to tab author, rate the tab!
1 2 3 4 5
comments
print report bad tab
guest
You may want to rate the tab now too:
select rating
Wanna post a correction for this tab? Suggest correction