Oops, an error
Loading. Please wait.

Archangels Thunderbird tab

1,753 views 6 this week
no commentswrite comment
1 2 3 4 5
2 more votes to show rating
add to favorites
×
Save as Personal and add changes to this tab that will be seen only by you. Learn more ›
×
You can save this tab as Personal to edit and correct it or add notes. All changes will be seen only by you. Learn more »
launch autoscroll
font size
0
reset
how to read this tab
guitar tuner
edit
Autoscroll
slow
fast
+/-
esc
set tempo
stop
ARTIST: Amon Düül II
SONG: "Archangels Thunderbird"
ALBUM: Yeti (1970)



Tuning: D G C F A D (NOTE: Tuning is Full-Step Down, not Half-Step)



FALSE INTRO:
Guitar R + L
d|-0-----0--0-----0--0-----0--0--0--0--0--0--0--0--0--0--0~---------------------|
A|-0-----0--0-----0--0-----0--0--0--0--0--0--0--0--0--0--0~---------------------|
F|-9-----9--9-----9--9-----9--9--9--9--9--9--9--9--9--14/16~--------------------|
C|-9-----9--9-----9--9-----9--9--9--9--9--9--9--9--9--14/16~--------------------|
G|-7-----7--7-----7--7-----7--7--7--7--7--7--7--7--7--12/14~--------------------|
D|-0-----0--0-----0--0-----0--0--0--0--0--0--0--0--0--0--0~---------------------|



INTRO:
Guitar R
d|------------------------------------------------------------------------|
A|------------------------------------------------------------------------|
F|------------------------------------------------------------------------|
C|------------------------------------------------------------------------|
G|------------------------------------------------------------------------|
D|------------------------------------------------------------------------|
+
d|------------------------------------------------------------------------|
A|------------------------------------------------------------------------|
F|------------------------------------------------------------------------|
C|------------------------------------------------------------------(5)---|
G|------------------------------------------------------------------(5)---|
D|-----------------------------------------------------------0---0---3----|
+
d|-------------------------------------------0-----0----------------------||
A|-------------------------------------------0-----0----------------------||
F|-------------------7-----7-----7-----7-----9-----9----------------------|| x 8
C|-7-----7-----------7-----7-----7-----7-----9-----9-----------------5----||
G|-7-----7-----------5-----5-----5-----5-----7-----7-----------------5----||
D|-5-----5-----------------------------------------------0-----0-----3----||



INTRO:
Guitar L
d|------------------------------------------------------------------------||
A|------------------------------------------------------------------------||
F|------------------------------------------------------------------------|| x 6
C|------------------------------------------------------------------------||
G|------------------------------------------------------------------------||
D|------------------------------------------------------------------------||
+                                        P.M.-------------|
d|------------------------------------------------------------------------|
A|------------------------------------------------------------------------|
F|------------------------------------------------------------------------|
C|------------------------------------------------------------------------|
G|-0-----------------------------------------x--x--x--x--x----------------|
D|-------------------------------------------0--0--0--0--0----------------|
+                                        P.M.-------------|
d|------------------------------------------------------------------------|
A|------------------------------------------------------------------------|
F|------------------------------------------------------------------------|
C|------------------------------------------------------------------------|
G|-0-----------------------------------------x--x-----x--x----------------|
D|-------------------------------------------0--0-----0--0----------------|
+
+                                        P.M.-------------|
d|------------------------------------------------------------------------|
A|------------------------------------------------------------------------|
F|------------------------------------------------------------------------|
C|------------------------------------------------------------------------|
G|-0-----------------------------------------x--x--x--x--x----------------|
D|-------------------------------------------0--0--0--0--0----------------|
+                                        P.M.-------------|
d|------------------------------------------------------------------------|
A|------------------------------------------------------------------------|
F|------------------------------------------------------------------------|
C|------------------------------------------------------------------------|
G|-0-----------------------------------------x--x-----x--x----------------|
D|-------------------------------------------0--0-----0--0----------------|



VERSE I:
d|------------------------------------------------------------------------||
A|------------------------------------------------------------------------||
F|-------------------7-----7-----7-----7-----9-----9----------------------|| x 3
C|-7-----7-----------7-----7-----7-----7-----9-----9-----------------5----||
G|-7-----7-----------5-----5-----5-----5-----7-----7-----------------5----||
D|-5-----5-----------------------------------------------0-----0-----3----||
+
d|-------------------------------------------0-----0-----0-----0----------|
A|-------------------------------------------0-----0-----0-----0----------|
F|-------------------7-----7-----7-----7-----9-----9-----9-----9----------|
C|-7-----7-----------7-----7-----7-----7-----9-----9-----9-----9----------|
G|-7-----7-----------5-----5-----5-----5-----7-----7-----7-----7----------|
D|-5-----5----------------------------------------------------------------|
+
   N.C.
d|-0----------------------------------------------------------------------|
A|-0----------------------------------------------------------------------|
F|-9----------------------------------------------------------------------|
C|-9----------------------------------------------------------------------|
G|-7----------------------------------------------------------------------|
D|-0----------------------------------------------------------------------|



VERSE I:
Guitar L
                                         P.M.-------------|
d|------------------------------------------------------------------------|
A|------------------------------------------------------------------------|
F|------------------------------------------------------------------------|
C|------------------------------------------------------------------------|
G|-0-----------------------------------------x--x--x--x--x----------------|
D|-------------------------------------------0--0--0--0--0----------------|
+                                        P.M.-------------|
d|------------------------------------------------------------------------|
A|------------------------------------------------------------------------|
F|------------------------------------------------------------------------|
C|------------------------------------------------------------------------|
G|-0-----------------------------------------x--x-----x--x----------------|
D|-------------------------------------------0--0-----0--0----------------|
+
                                         P.M.-------------|
d|------------------------------------------------------------------------|
A|------------------------------------------------------------------------|
F|------------------------------------------------------------------------|
C|------------------------------------------------------------------------|
G|-0-----------------------------------------x--x--x--x--x----------------|
D|-------------------------------------------0--0--0--0--0----------------|
+                                        P.M.-------------|
d|------------------------------------------------------------------------|
A|------------------------------------------------------------------------|
F|------------------------------------------------------------------------|
C|------------------------------------------------------------------------|
G|-0-----------------------------------------x--x--x--x--x--x--x-----x----|
D|-------------------------------------------0--0--0--0--0--0--0-----0----|
+
   N.C.
d|------------------------------------------------------------------------|
A|------------------------------------------------------------------------|
F|------------------------------------------------------------------------|
C|------------------------------------------------------------------------|
G|------------------------------------------------------------------------|
D|-0----------------------------------------------------------------------|



VERSE II:
d|------------------------------------------------------------------------||
A|------------------------------------------------------------------------||
F|-------------------7-----7-----7-----7-----9-----9----------------------|| x 15
C|-7-----7-----------7-----7-----7-----7-----9-----9-----------------5----||
G|-7-----7-----------5-----5-----5-----5-----7-----7-----------------5----||
D|-5-----5-----------------------------------------------0-----0-----3----||
+
d|-------------------------------------------0-----0-----0-----0----------|
A|-------------------------------------------0-----0-----0-----0----------|
F|-------------------7-----7-----7-----7-----9-----9-----9-----9----------|
C|-7-----7-----------7-----7-----7-----7-----9-----9-----9-----9----------|
G|-7-----7-----------5-----5-----5-----5-----7-----7-----7-----7----------|
D|-5-----5----------------------------------------------------------------|
+
   N.C.
d|-0----------------------------------------------------------------------|
A|-0----------------------------------------------------------------------|
F|-9----------------------------------------------------------------------|
C|-9----------------------------------------------------------------------|
G|-7----------------------------------------------------------------------|
D|-0----------------------------------------------------------------------|
+
d|------------------------------------------------------------------------||
A|------------------------------------------------------------------------||
F|------------------------------------------------------------------------|| x 2
C|------------------------------------------------------------------------||
G|------------------------------------------------------------------------||
D|------------------------------------------------------------------------||



VERSE II:
Guitar L
d|------------------------------------------------------------------------||
A|------------------------------------------------------------------------||
F|------------------------------------------------------------------------|| x 2
C|------------------------------------------------------------------------||
G|------------------------------------------------------------------------||
D|------------------------------------------------------------------------||
+
d|------------------------------------------------------------------------||
A|------------------------------------------------------------------------||
F|------------------------------------------------------------------------|| x 4
C|----------------------------------------------6-------6-------6---------||
G|-0-----------------------------------------7-------7-------7------------||
D|------------------------------------------------------------------------||
+
d|------------------------------------------------------------------------||
A|------------------------------------------------------------------------||
F|------------------------------------------------------------------------|| x 9
C|----------------------------------------------6-------6-------6-----6/7-||
G|-0-----------------------------------------7-------7-------7-------7----||
D|------------------------------------------------------------------------||
+
d|------------------------------------------------------------------------|
A|------------------------------------------------------------------------|
F|------------------------------------------------------------------------|
C|----------------------------------------------6-------6-------6---------|
G|-0-----------------------------------------7-------7-------7-------7----|
D|-------------------------------------------------------------------0----|
+
   N.C.
d|-0-----------0-----0-----0-----------0----------------------------------|
A|-0-----------0-----0-----15B--------(17)--------------------r15----14---|
F|-9-----------9-----9-----------------------------------------------14---|
C|-9-----------9-----9----------------------------------------------------|
G|-7----------------------------------------------------------------------|
D|-0----------------------------------------------------------------------|
+
   N.C.
d|------------------------------------------------------------------------|
A|-14---------------------------------------------------------------------|
F|-14---------------------------/14----------14----------14----------14\11|
C|-------------------------------0----------------------------------------|
G|------------------------------------------------------------------------|
D|------------------------------------------------------------------------|
+
   N.C.
d|------------------------------------------------------------------------|
A|------------------------------------------------------------------------|
F|------------------------------------------------------------------------|
C|-------------------------9/11-------/14---------------------------------|
G|-------------------------0----------------------------/14----14\11------|
D|-------------------------------------------------------0----------------|
+
   N.C.
d|------------------------------------------------------------------------|
A|------------------------------------------------------------------------|
F|------------------------------------------------------------------------|
C|------------------------------------------------------------------------|
G|-11\--\7----------------------------------------------------------------|
D|------------------------------------------------------------------------|



VERSE III:
Guitar R
d|------------------------------------------------------------------------||
A|------------------------------------------------------------------------||
F|-------------------7-----7-----7-----7-----9-----9----------------------|| x 15
C|-7-----7-----------7-----7-----7-----7-----9-----9-----------------5----||
G|-7-----7-----------5-----5-----5-----5-----7-----7-----------------5----||
D|-5-----5-----------------------------------------------0-----0-----3----||
+
d|-------------------------------------------0-----0-----0-----0----------|
A|-------------------------------------------0-----0-----0-----0----------|
F|-------------------7-----7-----7-----7-----9-----9-----9-----9----------|
C|-7-----7-----------7-----7-----7-----7-----9-----9-----9-----9----------|
G|-7-----7-----------5-----5-----5-----5-----7-----7-----7-----7----------|
D|-5-----5----------------------------------------------------------------|



OUTRO:
Guitar R
d|-0-----------------------0-----------0-----------0-----------0----------|
A|-0-----------------------0-----------0-----------0-----------0----------|
F|-9-----------------------9-----------9-----------9-----------9----------|
C|-9-----------------------9-----------9-----------9-----------9----------|
G|-7-----------------------7-----------7-----------7-----------7----------|
D|-0-----------------------0-----------0-----------0-----------0----------|
+
d|-0-----------0-----------0-----------0-----------0-----------0----------||
A|-0-----------0-----------0-----------0-----------0-----------0----------||
F|-9-----------9-----------9-----------9-----------9-----------9----------|| x 8
C|-9-----------9-----------9-----------9-----------9-----------9----------||
G|-7-----------7-----------7-----------7-----------7-----------7----------||
D|-0-----------0-----------0-----------0-----------0-----------0----------||
+
d|-0-----------0-----------0----------|
A|-0-----------0-----------0----------|
F|-9-----------9-----------9----------|
C|-9-----------9-----------9----------|
G|-7-----------7-----------7----------|
D|-0-----------0-----------0----------|


VERSE III:
Guitar L
Improvised solo



OUTRO:
Guitar L
Improvised solo



SONG STRUCTURE:

Guitar R
INTRO
VERSE I
VERSE II
VERSE III
OUTRO

Guitar L
INTRO
VERSE I
VERSE II
VERSE III (Solo)
OUTRO (Solo)



That's it. Please feel free to leave comments, corrections,
 questions, and requests. Cheers!

-Bennyshambles78-


Suggest correction
Creating personal tab
Creating personal tab
You can edit any tab online and save it as your Personal.

You can edit, replace or remove any tab part or add personal notes – all changes will be seen only by you.

Personal tabs can be accessed anytime from any device, even offline.
Learn more »
Give kudos to tab author, rate the tab!
1 2 3 4 5
comments
print report bad tab
guest
You may want to rate the tab now too:
select rating
Wanna post a correction for this tab? Suggest correction