Oops, an error
Loading. Please wait.

Starry Eyes tab

version 6
version 6

Interactive

3,146 views 6 this week
no commentswrite comment
1 2 3 4 5
2 more votes to show rating
add to favorites
×
Save as Personal and add changes to this tab that will be seen only by you. Learn more ›
×
You can save this tab as Personal to edit and correct it or add notes. All changes will be seen only by you. Learn more »
launch autoscroll
font size
0
reset
how to read this tab
guitar tuner
edit
Autoscroll
slow
fast
+/-
esc
set tempo
stop
-----------------------------------------------------------------------------
                                  
                     Starry Eyes - Motley Crue (GUITAR)
            
-----------------------------------------------------------------------------
Tabbed by: Scotto10

Tuning: tune all strings down one step

=============================================================================

Guitar 1



                                                             PM  
                                             H.           E  E   
D||-------|-------|-------|-------|-------|---------------------|
A||-------|-------|-------|-------|-------|---------------------|
F||-------|-------|-------|-------|-------|---------------------|
C||-------|-------|-------|-------|-------|--5------------L-----|
G||-------|-------|-------|-------|-------|--7------------L-----|
D||-------|-------|-------|-------|-------|------------------0--|


                                             PM                             
  E  E  E  E  E  E  E  E     H.           E  E     E  E  E  E  E  E  E  E   
--------------------------|---------------------|--------------------------|
--------------------------|---------------------|--------------------------|
--------------------------|---------------------|--------------------------|
--5--5-----7-----5-----4--|--4------------L-----|--4--4-----2-----4-----5--|
--7--7-----9-----7-----5--|--5------------L-----|--5--5-----5-----5-----7--|
--------------------------|------------------0--|--------------------------|


              PM PM PM                                            PM PM  
  H        E  E  E  E     E  E  E  E  E  E  E  E     H.           E  E   
-----------------------|--------------------------|---------------------|
-----------------------|--------------------------|---------------------|
-----------------------|--------------------------|---------------------|
--5--------L-----------|--5--5-----7-----5-----4--|--4------------------|
--7--------L-----------|--7--7-----9-----7-----5--|--5------------------|
--------------0--0--0--|--------------------------|---------------0--0--|


  E  E  E  E  E  E  E  E     Q    H        Q       E  E  E  E  E  E  E  E   
--------------------------|---------------------|--------------------------|
--------------------------|---------------------|--------------------------|
--------------------------|---------------------|--------------------------|
--4--4-----2-----4-----5--|--5------------------|-----5-----5-----5-----5--|
--5--5-----5-----5-----7--|--7------------------|-----7-----7-----7-----7--|
--------------------------|---------------------|--------------------------|


  E  E   H        Q       E  E  E  E  E  E  E  E     E  E   H        Q     
-----------------------|--------------------------|-----------------------|
-----------------------|--------------------------|-----------------------|
-----------------------|--------------------------|-----------------------|
--4--L\----------------|-----4-----4-----4-----4--|--2--L\----------------|
--5--L\----------------|-----5-----5-----5-----5--|--3--L\----------------|
-----------------------|--------------------------|-----------------------|


  E  E  E  E  E  E  E  E     E  E   H        Q       E  E  E  E  E  E  E  E   
--------------------------|-----------------------|--------------------------|
--------------------------|-----------------------|--------------------------|
--------------------------|-----------------------|--------------------------|
-----2-----2-----2-----2--|--4--L\----------------|-----4-----4-----4-----4--|
-----3-----3-----3-----3--|--5--L\----------------|-----5-----5-----5-----5--|
--------------------------|-----------------------|--------------------------|


  E  E   H        Q       E  E  E  E  E  E  E  E     E  E   H        Q     
-----------------------|--------------------------|-----------------------|
-----------------------|--------------------------|-----------------------|
-----------------------|--------------------------|-----------------------|
--5--L\----------------|-----5-----5-----5-----5--|--4--L\----------------|
--7--L\----------------|-----7-----7-----7-----7--|--5--L\----------------|
-----------------------|--------------------------|-----------------------|


  E  E  E  E  E  E  E  E     E  E   H        Q       E  E  E  E  E  E  E  E   
--------------------------|-----------------------|--------------------------|
--------------------------|-----------------------|--------------------------|
--------------------------|-----------------------|--------------------------|
-----4-----4-----4-----4--|--2--L\----------------|-----2-----2-----2-----2--|
-----5-----5-----5-----5--|--3--L\----------------|-----3-----3-----3-----3--|
--------------------------|-----------------------|--------------------------|


  E  E   Q    X X X X X X X X X X X X X X X X X X X X X X X X E   
--------------x-x-x-x-x-x----------------------------------------|
--------------x-x-x-x-x-x-x-x-x-x-x-x----------------------------|
--------------------------x-x-x-x-x-x-x-x-x-x-x-x----------------|
--4--L\-------------------------------x-x-x-x-x-x-x-x-x-x-x-x-4--|
--5--L\-------------------------------------------x-x-x-x-x-x-5--|
-----------------------------------------------------------------|


  PM PM PM PM PM PM                                   
  E  E  E  E  E  E  E  E     E  E   Q    E  E  E  E   
--------------------------|--------------------------|
--------------------------|--------------------------|
--------------------------|--------------------------|
--7--7--7--7--7--7--7--7--|--9--L\----------5-----7--|
--5--5--5--5--5--5--5--5--|--7--L\----------3-----5--|
--------------------------|--------------------------|


  E  E   Q    E  E  E  E     E  E   Q    E  Q    E     E  Q    H        E    
--------------------------|-------------------------|-----------------------|
--------------------------|-------------------------|-----------------------|
--------------------------|-------------------------|-----------------------|
--7--L\----------5-----7--|--7--L\----------5-------|-----------------------|
--5--L\----------3-----5--|--5--L\----------3-------|-----3----2--------2s--|
--------------------------|----------------------0--|--L--------------------|


  E  E   Q    E  E  E  E     E  E   Q    E  E  E  E     E  E   Q    E  Q    E   
--------------------------|--------------------------|-------------------------|
--------------------------|--------------------------|-------------------------|
--------------------------|--------------------------|-------------------------|
--9--L\----------5-----7--|--7--L\----------5-----7--|--7--L\----------5-------|
--7--L\----------3-----5--|--5--L\----------3-----5--|--5--L\----------3-------|
--------------------------|--------------------------|----------------------0--|


                                         PM                             
  E  Q    H        E     H.           E  E     E  E  E  E  E  E  E  E   
----------------------|---------------------|--------------------------|
----------------------|---------------------|--------------------------|
----------------------|---------------------|--------------------------|
----------------------|--5------------L-----|--5--5-----7-----5-----4--|
-----3----2--------x--|--7------------L-----|--7--7-----9-----7-----5--|
--L----------------x--|------------------0--|--------------------------|


                  PM                                           PM PM PM  
  H.           E  E     E  E  E  E  E  E  E  E     H        E  E  E  E   
---------------------|--------------------------|-----------------------|
---------------------|--------------------------|-----------------------|
---------------------|--------------------------|-----------------------|
--4------------L-----|--4--4-----2-----4-----5--|--5--------L-----------|
--5------------L-----|--5--5-----5-----5-----7--|--7--------L-----------|
------------------0--|--------------------------|--------------0--0--0--|


                                          PM PM                             
  E  E  E  E  E  E  E  E     H.           E  E     E  E  E  E  E  E  E  E   
--------------------------|---------------------|--------------------------|
--------------------------|---------------------|--------------------------|
--------------------------|---------------------|--------------------------|
--5--5-----7-----5-----4--|--4------------------|--4--4-----2-----4-----5--|
--7--7-----9-----7-----5--|--5------------------|--5--5-----5-----5-----7--|
--------------------------|---------------0--0--|--------------------------|


  Q    H        Q       E  E  E  E  E  E  E  E     E  E   H        Q     
---------------------|--------------------------|-----------------------|
---------------------|--------------------------|-----------------------|
---------------------|--------------------------|-----------------------|
--5------------------|-----5-----5-----5-----5--|--4--L\----------------|
--7------------------|-----7-----7-----7-----7--|--5--L\----------------|
---------------------|--------------------------|-----------------------|


  E  E  E  E  E  E  E  E     E  E   H        Q       E  E  E  E  E  E  E  E   
--------------------------|-----------------------|--------------------------|
--------------------------|-----------------------|--------------------------|
--------------------------|-----------------------|--------------------------|
-----4-----4-----4-----4--|--2--L\----------------|-----2-----2-----2-----2--|
-----5-----5-----5-----5--|--3--L\----------------|-----3-----3-----3-----3--|
--------------------------|-----------------------|--------------------------|


  E  E   H        Q       E  E  E  E  E  E  E  E     E  E   H        Q     
-----------------------|--------------------------|-----------------------|
-----------------------|--------------------------|-----------------------|
-----------------------|--------------------------|-----------------------|
--4--L\----------------|-----4-----4-----4-----4--|--5--L\----------------|
--5--L\----------------|-----5-----5-----5-----5--|--7--L\----------------|
-----------------------|--------------------------|-----------------------|


  E  E  E  E  E  E  E  E     E  E   H        Q       E  E  E  E  E  E  E  E   
--------------------------|-----------------------|--------------------------|
--------------------------|-----------------------|--------------------------|
--------------------------|-----------------------|--------------------------|
-----5-----5-----5-----5--|--4--L\----------------|-----4-----4-----4-----4--|
-----7-----7-----7-----7--|--5--L\----------------|-----5-----5-----5-----5--|
--------------------------|-----------------------|--------------------------|


  E  E   H        Q       E  E  E  E  E  E  E  E   
-----------------------|--------------------------|
-----------------------|--------------------------|
-----------------------|--------------------------|
--2--L\----------------|-----2-----2-----2-----2--|
--3--L\----------------|-----3-----3-----3-----3--|
-----------------------|--------------------------|


  E  E   Q    X X X X X X X X X X X X X X X X X X X X X X X X E   
--------------x-x-x-x-x-x----------------------------------------|
--------------x-x-x-x-x-x-x-x-x-x-x-x----------------------------|
--------------------------x-x-x-x-x-x-x-x-x-x-x-x----------------|
--4--L\-------------------------------x-x-x-x-x-x-x-x-x-x-x-x-4--|
--5--L\-------------------------------------------x-x-x-x-x-x-5--|
-----------------------------------------------------------------|


  PM PM PM PM PM PM                                   
  E  E  E  E  E  E  E  E     E  E   Q    E  E  E  E   
--------------------------|--------------------------|
--------------------------|--------------------------|
--------------------------|--------------------------|
--7--7--7--7--7--7--7--7--|--9--L\----------5-----7--|
--5--5--5--5--5--5--5--5--|--7--L\----------3-----5--|
--------------------------|--------------------------|


  E  E   Q    E  E  E  E     E  E   Q    E  Q    E     E  Q    H        E    
--------------------------|-------------------------|-----------------------|
--------------------------|-------------------------|-----------------------|
--------------------------|-------------------------|-----------------------|
--7--L\----------5-----7--|--7--L\----------5-------|-----------------------|
--5--L\----------3-----5--|--5--L\----------3-------|-----3----2--------2s--|
--------------------------|----------------------0--|--L--------------------|


  E  E   Q    E  E  E  E     E  E   Q    E  E  E  E     E  E   Q    E  Q    E   
--------------------------|--------------------------|-------------------------|
--------------------------|--------------------------|-------------------------|
--------------------------|--------------------------|-------------------------|
--9--L\----------5-----7--|--7--L\----------5-----7--|--7--L\----------5-------|
--7--L\----------3-----5--|--5--L\----------3-----5--|--5--L\----------3-------|
--------------------------|--------------------------|----------------------0--|


  E  Q    H        E     E  E  E  E  E  E  E  E     E  E  E  E  E  E  E  E   
----------------------|--------------------------|--------------------------|
----------------------|--------------------------|--------------------------|
----------------------|--------------------------|--------------------------|
----------------------|--------------2-----------|--------------2-----------|
-----3----2--------x--|--0--3--2--3-----3--2--3--|--0--3--2--3-----3--2--3--|
--L----------------x--|--------------------------|--------------------------|


  E  E  E  E  E  E  E  E     E  E  E  E  E  E  E  E   
--------------------------|--------------------------|
--------------------------|--------------------------|
--------------------------|--------------------------|
--------------2-----------|--------------2-----------|
--0--3--2--3-----3--2--3--|--0--3--2--3-----3--2--3--|
--------------------------|--------------------------|


  E  E  E  E  E  E  E  E     E  E  E  E  E  E  E  E   
--------------------------|--------------------------|
--------------------------|--------------------------|
--------------------------|--------------------------|
--------------2-----------|--------------2-----------|
--0--3--2--3-----3--2--3--|--0--3--2--3-----3--2--3--|
--------------------------|--------------------------|


  E  E  E  E  E  E  E  E     E  E  E  E  E  E  E  E   
--------------------------|--------------------------|
--------------------------|--------------------------|
--------------------------|--------------------------|
--------------2-----------|--------------2-----------|
--0--3--2--3-----3--2--3--|--0--3--2--3-----3--2--3--|
--------------------------|--------------------------|


  E  E  E  E  E  E  E  E     E  E  E  E  E  E  E  E   
--------------------------|--------------------------|
--------------------------|--------------------------|
--------------------------|--------------------------|
--------------------------|--------------------------|
--------------2-----------|--------------2-----------|
--0--3--2--3-----3--2--3--|--0--3--2--3-----3--2--3--|


  E  E  E  E  E  E  E  E     E  E  E  E  E  E  E  E   
--------------------------|--------------------------|
--------------------------|--------------------------|
--------------------------|--------------------------|
--------------2-----------|--------------2-----------|
--0--3--2--3-----3--2--3--|--0--3--2--3-----3--2--3--|
--------------------------|--------------------------|


  E  E  E  E  E  E  E  E     E  E  E  E  E  E  E  E   
--------------------------|--------------------------|
--------------------------|--------------------------|
--------------------------|--------------------------|
--------------------------|--------------------------|
--------------2-----------|--------------2-----------|
--0--3--2--3-----3--2--3--|--0--3--2--3-----3--2--3--|


  E  E  E  E  E  E  E  E     E  E  E  E  E  E  E  E   
--------------------------|--------------------------|
--------------------------|--------------------------|
--------------------------|--------------------------|
--------------2-----------|--------------2-----------|
--0--3--2--3-----3--2--3--|--0--3--2--3-----3--2--3--|
--------------------------|--------------------------|


  PM PM PM PM PM                                            
  E  E  E  E  E  E  E  E     E  Q     S  S E   S  S E.   S  
--------------------------|--------------------------------|
--------------------------|--------------------------------|
--------------------------|-----2b----2p-0-2b--2p-0-2b---0-|
--4--4--4--4--4--4--4--4--|--------------------------------|
--2--2--2--2--2--2--2--2--|--------------------------------|
--------------------------|--------------------------------|


  at times, 2 separat solo tracks are mixed together                            
                                                               |--3--|  |--3--| 
  E.                                                 S  S E.   S  S  S  S  S  S 
--------------------------------------------------------------------------------
--------------------------------------------------------------------------------
--2b-------------------------------------------------2p-0-2b--------------------
---------------------------------------------------------------2p-0h-2p-0h-2p-0h
--------------------------------------------------------------------------------
--------------------------------------------------------------------------------


  PM PM PM PM PM PM PM PM PM PM PM PM                
  |--3--|  |--3--|  |--3--|  |--3--|                 
  S  S  S  S  S  S  S  S  S  S  S  S  S Q    S  E    
--------------------------------------3-------------|
--------------------------3--3--5--5----5------15b--|
--------------2--2--4--4----------------------------|
--2--2--4--4----------------------------------------|
----------------------------------------------------|
----------------------------------------------------|


          |---3--|                                        
   E   S  S   S  S  S  S   S   S   S  S  S   S  S   S  S  
------12-------------------------------------------------|
---L-----15p-12----12------------------------------------|
----------------15----15p-14h-14p-12----14p-12-----------|
-------------------------------------14--------14p-12----|
------------------------------------------------------14-|
---------------------------------------------------------|


      |---3---|                          
   S  S   S   S  S  Q      Q.        E   
----------------------------------------|
----------------------------------------|
----------------------------------------|
--12------------------------------------|
-----14p-13p-12-10-12b----14brb------0--|
----------------------------------------|


  REALY sloppy - two gtr tracks mixed together                       
  TP                                           TP TP TP TP           
  E                                            E  E  E  E  S S Q     
--------------------------------------------------------------------|
-------------------------------------------------------------8------|
-----------------------------------------------------------7---9----|
--2--------------------------------------------4--5--7--9-----------|
--------------------------------------------------------------------|
--------------------------------------------------------------------|


  S S S S  S S  E   Q      Q        E  E  E  E  E  E  E  E   
-------------7-10---Lb-----L\----|--------------------------|
--7---7-8-10---------------------|--------------------------|
----9----------------------------|--------------------------|
---------------------------------|--1--2--1-----------------|
---------------------------------|-----------2--2--3--2-----|
---------------------------------|-----------------------3--|


  E  E  E  E  E  E  E  E     E    E   E    E   E    E   E    E   
--------------------------|-------------------------------------|
--------------------------|-------------------------------------|
--------------------------|--9s--11--11s--12--12s--14--14s--12--|
--4--5--4-----------------|-------------------------------------|
-----------5--6--7--6-----|--7s---9---9s--10--10s--12--12s--10--|
-----------------------7--|-------------------------------------|


   E    E  E  E  E  S S E    E      E    E   E   E    E   E  S  S E   
--------------------------------|------------------------------------|
--------------------------------|------------------------------------|
--12s--11--9--9--9--9-9-9--/14--|--14---12--11--11s--12--11--7s-9-9--|
--------------------------------|------------------------------------|
--10s---9--7--7--7--7-7-7--/12--|--12s--10---9---9s--10---9--5s-7-7--|
--------------------------------|------------------------------------|


   E   E  E  E  E   E  E  E     E    E   E    E   E    E   E    E   
-----------------------------|-------------------------------------|
-----------------------------|-------------------------------------|
--11s--9--7--7--9s--7--5--5--|--9s--11--11s--12--12s--14--14s--16--|
-----------------------------|-------------------------------------|
---9s--7--5--5--7s--5--3--3--|--7s---9---9s--10--10s--12--12s--14--|
-----------------------------|-------------------------------------|


   E    E   E    E   Q.      E     E  E  E  E  E  E  E  E   
--------------------------------|--------------------------|
--------------------------------|--------------------------|
--16s--17--17s--16--16\---------|--------------------------|
--------------------------------|--1--2--1-----------------|
--14s--15--15s--14--14\---------|-----------2--2--3--2-----|
--------------------------------|-----------------------3--|


  E  E  E  E  E  E  E  E     W                   W                 
--------------------------|-------------------|-------------------|
--------------------------|-------------------|-------------------|
--------------------------|--5----------------|--4----------------|
--4--5--4-----------------|--5----------------|--4----------------|
-----------5--6--7--6-----|--3----------------|--2----------------|
-----------------------7--|-------------------|-------------------|


  W                   W                   W                   H         
-------------------|-------------------|-------------------|-----------|
-------------------|-------------------|-------------------|-----------|
--5----------------|--4----------------|--5----------------|--L--------|
--5----------------|--4----------------|--5----------------|--L--------|
--3----------------|--2----------------|--3----------------|--L--------|
-------------------|-------------------|-------------------|-----------|


  W                   E  E   Q    E  E  E  E     E  E   Q    E  E  E  E   
-------------------|--------------------------|--------------------------|
-------------------|--------------------------|--------------------------|
--L----------------|--------------------------|--------------------------|
--L----------------|--9--L\----------5-----7--|--7--L\----------5-----7--|
--L----------------|--7--L\----------3-----5--|--5--L\----------3-----5--|
-------------------|--------------------------|--------------------------|


  E  E   Q    E  Q    E     E  Q    H         E      E  E   Q    E  E  E  E   
-------------------------|------------------------|--------------------------|
-------------------------|------------------------|--------------------------|
-------------------------|------------------------|--------------------------|
--7--L\----------5-------|------------------------|--9--L\----------5-----7--|
--5--L\----------3-------|-----3----2~--------2s--|--7--L\----------3-----5--|
----------------------0--|--L---------------------|--------------------------|


  E  E  Q    E  E  E  E     E  E  Q    E  Q    E     E  Q    H         E   
-------------------------|------------------------|-----------------------|
-------------------------|------------------------|-----------------------|
-------------------------|------------------------|-----------------------|
--7--L----------5-----7--|--7--L----------5-------|-----------------------|
--5--L----------3-----5--|--5--L----------3-------|-----3----2~--------x--|
-------------------------|---------------------0--|--L-----------------x--|


  E  E   Q    E  E  E  E     E  E  Q    E  E  E  E     E  E  Q    E  Q    E   
--------------------------|-------------------------|------------------------|
--------------------------|-------------------------|------------------------|
--------------------------|-------------------------|------------------------|
--9--L\----------5-----7--|--7--L----------5-----7--|--7--L----------5-------|
--7--L\----------3-----5--|--5--L----------3-----5--|--5--L----------3-------|
--------------------------|-------------------------|---------------------0--|


                    PM             PM                                   
  E  Q    H         E     H        E  E  E  E     H        E  E  E  E   
-----------------------|-----------------------|-----------------------|
-----------------------|-----------------------|-----------------------|
-----------------------|--------------------5--|--L--------L--5--4--2--|
-----------------------|--5--------L--5-----7--|--L--------L--x--5--4--|
-----3----2~-----------|--7--------L--7--------|-----------------------|
--L-----------------0--|-----------0-----------|-----------------------|


                                                           PM           
  H        Q    E   E     Q.     Q    Q    E      H        E  E  E  E   
-----------------------|----------------------|------------------------|
-----------------------|----------------------|------------------------|
--L--------L----L--/4--|--L------2----L-------|---------------------5--|
--L--------L----L--/5--|--L------4----L----4--|--/5--------L--5-----7--|
-----------------------|-------------------5--|--/7--------L--7--------|
-----------------------|----------------------|------------0-----------|


  H        E  E  E  E     H        Q    E   E     Q.     Q    Q    E   
-----------------------|-----------------------|----------------------|
-----------------------|-----------------------|----------------------|
--L--------L--5--4--2--|--L--------L----L--/4--|--L------2----L-------|
--L--------L--x--5--4--|--L--------L----L--/5--|--L------4----L----4--|
-----------------------|-----------------------|-------------------5--|
-----------------------|-----------------------|----------------------|


            PM                                                           
   H        E  E  E  E     H        E  E  E  E     H        Q    E   E   
------------------------|-----------------------|-----------------------|
------------------------|-----------------------|-----------------------|
---------------------5--|--L--------L--5--4--2--|--L--------L----L--/4--|
--/5--------L--5-----7--|--L--------L--x--5--4--|--L--------L----L--/5--|
--/7--------L--7--------|-----------------------|-----------------------|
------------0-----------|-----------------------|-----------------------|


                                   PM                                   
  Q.     Q    Q    E      H        E  E  E  E     H        E  E  E  E   
----------------------|------------------------|-----------------------|
----------------------|------------------------|-----------------------|
--L------2----L-------|---------------------5--|--L--------L--5--4--2--|
--L------4----L----4--|--/5--------L--5-----7--|--L--------L--x--5--4--|
-------------------5--|--/7--------L--7--------|-----------------------|
----------------------|------------0-----------|-----------------------|


                                                           PM           
  H        Q    E   E     Q.     Q    Q    E      H        E  E  E  E   
-----------------------|----------------------|------------------------|
-----------------------|----------------------|------------------------|
--L--------L----L--/4--|--L------2----L-------|---------------------5--|
--L--------L----L--/5--|--L------4----L----4--|--/5--------L--5-----7--|
-----------------------|-------------------5--|--/7--------L--7--------|
-----------------------|----------------------|------------0-----------|


  H        E  E  E  E     H        Q    E   E     Q.     Q    Q    E   
-----------------------|-----------------------|----------------------|
-----------------------|-----------------------|----------------------|
--L--------L--5--4--2--|--L--------L----L--/4--|--L------2----L-------|
--L--------L--x--5--4--|--L--------L----L--/5--|--L------4----L----4--|
-----------------------|-----------------------|-------------------5--|
-----------------------|-----------------------|----------------------|


            PM                                                           
   H        E  E  E  E     H        E  E  E  E     H        Q    E   E   
------------------------|-----------------------|-----------------------|
------------------------|-----------------------|-----------------------|
---------------------5--|--L--------L--5--4--2--|--L--------L----L--/4--|
--/5--------L--5-----7--|--L--------L--x--5--4--|--L--------L----L--/5--|
--/7--------L--7--------|-----------------------|-----------------------|
------------0-----------|-----------------------|-----------------------|


  Q.     Q    Q    E    
----------------------||
----------------------||
--L------2----L-------||
--L------4----L----4--||
-------------------5--||
----------------------||


======================================================================


Guitar 2 (outro solo)




                  H        E  E   E.      S     Q      Q.       Q      S   S  
d||--------------0--22pbr---20-|--22b----22b------22b----22p-20-|
A||----------------------------|--------------------------------|
F||----------------------------|--------------------------------|
C||----------------------------|--------------------------------|
G||----------------------------|--------------------------------|
D||----------------------------|--------------------------------|


   Q      H          E   E    
--22b----22b---------L--22b--|
-----------------------------|
-----------------------------|
-----------------------------|
-----------------------------|
-----------------------------|


                      |---3---|      |---3---|      |---3---|  
   S     S  E   S  S  S   S   S  E   S   S   S  E   S   S   S  
---Lpbr-22-22--19-20-19h-20p-19-17--17h-19p-17-15--15p-14h-15-|
--------------------------------------------------------------|
--------------------------------------------------------------|
--------------------------------------------------------------|
--------------------------------------------------------------|
--------------------------------------------------------------|


       |---3---|      |---3---|                    
   E   S   S   S  E   S   S   S  E   Q      S   S  
--14--14h-15p-13-12--12h-14p-12-------------------|
--------------------------------15--15b----15p-12-|
--------------------------------------------------|
--------------------------------------------------|
--------------------------------------------------|
--------------------------------------------------|


   Q      Q     S  E   S  S  S  S  S     E    S  S  S  S  E   Q      Q      
----------------------12-15----12----|-------15----12----15----------------|
--15b----15b----L-15--------15----15-|---Lb-----15----15-----15b-----L\----|
-------------------------------------|-------------------------------------|
-------------------------------------|-------------------------------------|
-------------------------------------|-------------------------------------|
-------------------------------------|-------------------------------------|


    S  S  E  E   E   E.  S  E   E      S S  E   Q     Q      E    S   S  
----------------22---------22------|-------22--------22b----22b--22p-20-|
-----------------------------------|------------------------------------|
--/19-19-19---------19---------19--|---L-------19-----------------------|
-----------------------------------|------------------------------------|
-----------------------------------|------------------------------------|
-----------------------------------|------------------------------------|


   Q      Q      E    E.    E.       Q      Q      Q       E   E    
--22b----22b----22b--22b---22b---|--22b----22b----22b~----22--22b--|
---------------------------------|---------------------------------|
---------------------------------|---------------------------------|
---------------------------------|---------------------------------|
---------------------------------|---------------------------------|
---------------------------------|---------------------------------|


   S  S  S  S   S. S   S. S   S. S   S. S   S  S  
--19-22-19-20p-19-20p-19-20p-19-22p-19-20p-19-20-|
-------------------------------------------------|
-------------------------------------------------|
-------------------------------------------------|
-------------------------------------------------|
-------------------------------------------------|


   E   S   S  S   S  S   S  S   S  S   S  S   S  S   S  
--19--22p-19-20p-19-22p-19-20p-19-22p-19-20p-19-22p-19-|
-------------------------------------------------------|
-------------------------------------------------------|
-------------------------------------------------------|
-------------------------------------------------------|
-------------------------------------------------------|


   S   S  S   S  S   S  S   S  S   S  S   S  S   S  S   S  
--20p-19-22p-19-20p-19-22p-19-20p-19-22p-19-20p-19-22p-19-|
----------------------------------------------------------|
----------------------------------------------------------|
----------------------------------------------------------|
----------------------------------------------------------|
----------------------------------------------------------|


   Q      Q      Q        E      E    
--22b----22b----22pb~----22pb~--22b--|
-------------------------------------|
-------------------------------------|
-------------------------------------|
-------------------------------------|
-------------------------------------|


   S S  S   S  S S  S   S  S S  S   S  S S  S   S  
--22---22p-19-19---20s-17-17---19s-15-15---17s-14-|
--------------------------------------------------|
--------------------------------------------------|
--------------------------------------------------|
---x-x--x---x--x-x--x---x--x-x--x---x--x-x--x---x-|
--------------------------------------------------|


   S S  S   S  S S  S S  S S  S  S S  S S S     E   E.  S  E   E.  S  E   E   
--14---15s-12-12-------------14b-----14-----|--22---------22---------22------|
-------------------15---14------------------|--------------------------------|
--------------------------------------------|------19---------19---------19--|
--------------------------------------------|--------------------------------|
---x-x--x---x--x-x--x-x--x-x--x--x-x--x-x-x-|--------------------------------|
--------------------------------------------|--------------------------------|


   S S  E   E.  S  E   E.  S  E      Q      Q      Q        E   E    
-------22---------22-------------|--22b----22b----22pb~-----L--22b--|
---------------------------------|----------------------------------|
---L-------19---------19-----19--|----------------------------------|
---------------------------------|----------------------------------|
---------------------------------|----------------------------------|
---------------------------------|----------------------------------|


  E   E   E   E   E    E    E   S   S     Q      Q      E   S   S  S  S   S  S  
-----22b-----20--22b--22b--22--20h-22-|--22b----22b----19--20p-19-19-22p-19-19-|
--------------------------------------|----------------------------------------|
--------------------------------------|----------------------------------------|
--------------------------------------|----------------------------------------|
--------------------------------------|----------------------------------------|
--------------------------------------|----------------------------------------|


   E   S   S  S   S  S   S  S   S  S   S  S   S  S   S  
--19--22p-19-20p-19-22p-19-20p-19-22p-19-20p-19-22p-19-|
-------------------------------------------------------|
-------------------------------------------------------|
-------------------------------------------------------|
-------------------------------------------------------|
-------------------------------------------------------|


   S   S  S   S  S   S  S   S  S   S  S   S  S   S  S   S  
--20p-19-22p-19-20p-19-22p-19-20p-19-22p-19-20p-19-22p-19-|
----------------------------------------------------------|
----------------------------------------------------------|
----------------------------------------------------------|
----------------------------------------------------------|
----------------------------------------------------------|


   S   S  S   S  S   S  S   S  S   S  S   S  S   S  S   S   
--20p-19-22p-19-20p-19-22p-19-20p-19-22p-19-20p-19-22p-19-||
----------------------------------------------------------||
----------------------------------------------------------||
----------------------------------------------------------||
----------------------------------------------------------||
----------------------------------------------------------||




Duration Legend
---------------
W - whole
H - half
Q - quarter
E - 8th
S - 16th
T - 32nd
X - 64th
. - note dotted
|-n-|  - n-tuplets


Tablature Legend
----------------
L - tied note
x - dead note
g - grace note
(n) - ghost note
> - accentuded note
NH - natural harmonic
AH - artificial harmonic
TH - tapped harmonic
SH - semi harmonic
PH - pitch harmonic
h - hammer on
p - pull off
b - bend
br - bendRelease
pb - preBend
pbr - preBendRelease
brb - bendReleaseBend
\n/ - tremolo bar dip
\n - tremolo bar dive
-/n - tremolo bar Release up
/n\ - tremolo bar inverted dip
/n - tremolo bar return
-\n - tremolo bar Release down
S - shift slide
s - legato slide
/ -  slide into from below or out of upwards
\ -  slide into from above or out of downwards
~ - vibrato
W - wide vibrato
tr - trill
TP - tremolo picking
T - tapping
S - slap
P - pop
< - fade in
^ - brush up
v - brush down


            
            
Suggest correction
Creating personal tab
Creating personal tab
You can edit any tab online and save it as your Personal.

You can edit, replace or remove any tab part or add personal notes – all changes will be seen only by you.

Personal tabs can be accessed anytime from any device, even offline.
Learn more »
Give kudos to tab author, rate the tab!
1 2 3 4 5
comments
print report bad tab
guest
You may want to rate the tab now too:
select rating
Wanna post a correction for this tab? Suggest correction