Oops, an error
Loading. Please wait.

Lied Vom Scheitern Tab

version 1
version 1

Whole song

Interactive

438 views 3 this week
no commentswrite comment
1 2 3 4 5
please rate
add to favorites
launch autoscroll
font size
0
reset
how to read this tab
guitar tuner
Tab Pro tools
  • play this tab
  • loop segment
  • change instrument
  • show fretboard
  • metronome
×
Best way to learn
"Lied Vom Scheitern"
Autoscroll
slow
fast
+/-
esc
set tempo
stop
Contributor
Difficulty
novice
Verse

|---------------------------------------------------------------|
|---------------------------------------------------------------|
|9-9-9-9-9-9-9-9-4-4-4-4-4-4-4-4-6-6-6-6-6-6-6-6----------------|
|-----------------------------------------------7-7-7-7-7-7-7-7-|
|7-7-7-7-7-7-7-7-2-2-2-2-2-2-2-2-4-4-4-4-4-4-4-4----------------|
|-----------------------------------------------5-5-5-5-5-5-5-5-|

----------------------------------------------------------------|
----------------------------------------------------------------|
9-9-9-9-9-9-9-9-4-4-4-4-4-4-4-4-9-9-9-9-9-9-9-9-4-4-4-4-4-4-4-4-|(play 2x times)
----------------------------------------------------------------|
7-7-7-7-7-7-7-7-2-2-2-2-2-2-2-2-7-7-7-7-7-7-7-7-2-2-2-2-2-2-2-2-|
----------------------------------------------------------------|

Pre-Chorus

|---------------------------------------------------------------|
|---------------------------------------------------------------|
|--------------------------------6-6-6-6-6-6-6-6-7-7-7-7-7-7-7-7|
|7-7-7-7-7-7-7-7-7-7-7-7-7-7-7-7--------------------------------|
|--------------------------------4-4-4-4-4-4-4-4-5-5-5-5-5-5-5-5|
|5-5-5-5-5-5-5-5-5-5-5-5-5-5-5-5--------------------------------|

Chorus

|---------------------------------------------------------------|
|---------------------------------------------------------------|
|6-6-6-6-6-6-6-6-----------------9-9-9-9-9-9-9-9-4-4-4-4-4-4-4-4| (play 2x times)
|6-6-6-6-6-6-6-6-7-7-7-7-7-7-7-7-9-9-9-9-9-9-9-9-4-4-4-4-4-4-4-4|
|4-4-4-4-4-4-4-4-7-7-7-7-7-7-7-7-7-7-7-7-7-7-7-7-2-2-2-2-2-2-2-2|
|----------------5-5-5-5-5-5-5-5--------------------------------|

|---------------------------------------------------------------|
|---------------------------------------------------------------|
|6-6-6-6-6-6-6-6-----------------9-9-9-9-9-9-9-9----------------|
|6-6-6-6-6-6-6-6-7-7-7-7-7-7-7-7-9-9-9-9-9-9-9-9-6-6-6-6-6-6-6-6|
|4-4-4-4-4-4-4-4-7-7-7-7-7-7-7-7-7-7-7-7-7-7-7-7-6-6-6-6-6-6-6-6|
|----------------5-5-5-5-5-5-5-5-----------------4-4-4-4-4-4-4-4|

------------------------------------------------1-------5-------|
------------------------------------------------1-------5-------|
------------------------------------------------1-------6-------|
7-7-7-7-7-7-7-7-7-7-7-7-7-7-7-7-7-7-7-7-7-7-7-7-3-------7-------|
7-7-7-7-7-7-7-7-7-7-7-7-7-7-7-7-7-7-7-7-7-7-7-7-3-------7-------|
5-5-5-5-5-5-5-5-5-5-5-5-5-5-5-5-5-5-5-5-5-5-5-5-1-------5-------|

Solo

|----------------------0-2|
|--------------------1----|
|----------9-8-6-4-2------|
|9----9-------------------|
|--11---11----------------|
|-------------------------|
comments
We did not receive enough feedback on this tab! Please rate:
print report bad tab
1 2 3 4 5
I want to post or [tab]
guest
You may want to rate the tab now too:
select rating
Please do not post tabs as comments. Select "correction" instead!